  0
SECTION
  2
HEADER
  9
$ACADVER
  1
AC1015
  9
$ACADMAINTVER
 70
    20
  9
$DWGCODEPAGE
  3
ANSI_932
  9
$INSBASE
 10
0.0
 20
0.0
 30
0.0
  9
$EXTMIN
 10
-1350.082391174606
 20
-2014.684977898438
 30
-0.0015258207003583
  9
$EXTMAX
 10
1350.082403747461
 20
1999.567671355126
 30
0.0000000349246037
  9
$LIMMIN
 10
0.0
 20
0.0
  9
$LIMMAX
 10
0.0
 20
0.0
  9
$ORTHOMODE
 70
     0
  9
$REGENMODE
 70
     1
  9
$FILLMODE
 70
     1
  9
$QTEXTMODE
 70
     0
  9
$MIRRTEXT
 70
     1
  9
$LTSCALE
 40
76.2
  9
$ATTMODE
 70
     1
  9
$TEXTSIZE
 40
0.0
  9
$TRACEWID
 40
1.0
  9
$TEXTSTYLE
  7
STANDARD
  9
$CLAYER
  8
DATA
  9
$CELTYPE
  6
ByLayer
  9
$CECOLOR
 62
   256
  9
$CELTSCALE
 40
1.0
  9
$DISPSILH
 70
     0
  9
$DIMSCALE
 40
1.0
  9
$DIMASZ
 40
0.18
  9
$DIMEXO
 40
0.0625
  9
$DIMDLI
 40
0.38
  9
$DIMRND
 40
0.0
  9
$DIMDLE
 40
0.0
  9
$DIMEXE
 40
0.18
  9
$DIMTP
 40
0.0
  9
$DIMTM
 40
0.0
  9
$DIMTXT
 40
0.18
  9
$DIMCEN
 40
0.09
  9
$DIMTSZ
 40
0.0
  9
$DIMTOL
 70
     0
  9
$DIMLIM
 70
     0
  9
$DIMTIH
 70
     1
  9
$DIMTOH
 70
     1
  9
$DIMSE1
 70
     0
  9
$DIMSE2
 70
     0
  9
$DIMTAD
 70
     0
  9
$DIMZIN
 70
     0
  9
$DIMBLK
  1

  9
$DIMASO
 70
     1
  9
$DIMSHO
 70
     1
  9
$DIMPOST
  1

  9
$DIMAPOST
  1

  9
$DIMALT
 70
     0
  9
$DIMALTD
 70
     2
  9
$DIMALTF
 40
25.4
  9
$DIMLFAC
 40
1.0
  9
$DIMTOFL
 70
     0
  9
$DIMTVP
 40
0.0
  9
$DIMTIX
 70
     0
  9
$DIMSOXD
 70
     0
  9
$DIMSAH
 70
     0
  9
$DIMBLK1
  1

  9
$DIMBLK2
  1

  9
$DIMSTYLE
  2
STANDARD
  9
$DIMCLRD
 70
     0
  9
$DIMCLRE
 70
     0
  9
$DIMCLRT
 70
     0
  9
$DIMTFAC
 40
1.0
  9
$DIMGAP
 40
0.09
  9
$DIMJUST
 70
     0
  9
$DIMSD1
 70
     0
  9
$DIMSD2
 70
     0
  9
$DIMTOLJ
 70
     1
  9
$DIMTZIN
 70
     0
  9
$DIMALTZ
 70
     0
  9
$DIMALTTZ
 70
     0
  9
$DIMUPT
 70
     0
  9
$DIMDEC
 70
     4
  9
$DIMTDEC
 70
     4
  9
$DIMALTU
 70
     2
  9
$DIMALTTD
 70
     2
  9
$DIMTXSTY
  7
STANDARD
  9
$DIMAUNIT
 70
     0
  9
$DIMADEC
 70
     0
  9
$DIMALTRND
 40
0.0
  9
$DIMAZIN
 70
     0
  9
$DIMDSEP
 70
    46
  9
$DIMATFIT
 70
     3
  9
$DIMFRAC
 70
     0
  9
$DIMLDRBLK
  1

  9
$DIMLUNIT
 70
     2
  9
$DIMLWD
 70
    -2
  9
$DIMLWE
 70
    -2
  9
$DIMTMOVE
 70
     0
  9
$LUNITS
 70
     2
  9
$LUPREC
 70
     4
  9
$SKETCHINC
 40
0.1
  9
$FILLETRAD
 40
0.0
  9
$AUNITS
 70
     0
  9
$AUPREC
 70
     0
  9
$MENU
  1
acad
  9
$ELEVATION
 40
0.0
  9
$PELEVATION
 40
0.0
  9
$THICKNESS
 40
0.0
  9
$LIMCHECK
 70
     0
  9
$CHAMFERA
 40
0.0
  9
$CHAMFERB
 40
0.0
  9
$CHAMFERC
 40
0.0
  9
$CHAMFERD
 40
0.0
  9
$SKPOLY
 70
     0
  9
$TDCREATE
 40
2457812.596539352
  9
$TDUCREATE
 40
2457812.221539352
  9
$TDUPDATE
 40
2457812.671527778
  9
$TDUUPDATE
 40
2457812.296527778
  9
$TDINDWG
 40
0.0003472222
  9
$TDUSRTIMER
 40
0.0003472222
  9
$USRTIMER
 70
     1
  9
$ANGBASE
 50
0.0
  9
$ANGDIR
 70
     0
  9
$PDMODE
 70
     1
  9
$PDSIZE
 40
-2.0
  9
$PLINEWID
 40
0.0
  9
$SPLFRAME
 70
     0
  9
$SPLINETYPE
 70
     6
  9
$SPLINESEGS
 70
     8
  9
$HANDSEED
  5
534
  9
$SURFTAB1
 70
     6
  9
$SURFTAB2
 70
     6
  9
$SURFTYPE
 70
     6
  9
$SURFU
 70
     6
  9
$SURFV
 70
     6
  9
$UCSBASE
  2

  9
$UCSNAME
  2

  9
$UCSORG
 10
0.0
 20
0.0
 30
0.0
  9
$UCSXDIR
 10
1.0
 20
0.0
 30
0.0
  9
$UCSYDIR
 10
0.0
 20
1.0
 30
0.0
  9
$UCSORTHOREF
  2

  9
$UCSORTHOVIEW
 70
     0
  9
$UCSORGTOP
 10
0.0
 20
0.0
 30
0.0
  9
$UCSORGBOTTOM
 10
0.0
 20
0.0
 30
0.0
  9
$UCSORGLEFT
 10
0.0
 20
0.0
 30
0.0
  9
$UCSORGRIGHT
 10
0.0
 20
0.0
 30
0.0
  9
$UCSORGFRONT
 10
0.0
 20
0.0
 30
0.0
  9
$UCSORGBACK
 10
0.0
 20
0.0
 30
0.0
  9
$PUCSBASE
  2

  9
$PUCSNAME
  2

  9
$PUCSORG
 10
0.0
 20
0.0
 30
0.0
  9
$PUCSXDIR
 10
1.0
 20
0.0
 30
0.0
  9
$PUCSYDIR
 10
0.0
 20
1.0
 30
0.0
  9
$PUCSORTHOREF
  2

  9
$PUCSORTHOVIEW
 70
     0
  9
$PUCSORGTOP
 10
0.0
 20
0.0
 30
0.0
  9
$PUCSORGBOTTOM
 10
0.0
 20
0.0
 30
0.0
  9
$PUCSORGLEFT
 10
0.0
 20
0.0
 30
0.0
  9
$PUCSORGRIGHT
 10
0.0
 20
0.0
 30
0.0
  9
$PUCSORGFRONT
 10
0.0
 20
0.0
 30
0.0
  9
$PUCSORGBACK
 10
0.0
 20
0.0
 30
0.0
  9
$USERI1
 70
     0
  9
$USERI2
 70
     0
  9
$USERI3
 70
     0
  9
$USERI4
 70
     0
  9
$USERI5
 70
     0
  9
$USERR1
 40
0.0
  9
$USERR2
 40
0.0
  9
$USERR3
 40
0.0
  9
$USERR4
 40
0.0
  9
$USERR5
 40
0.0
  9
$WORLDVIEW
 70
     1
  9
$SHADEDGE
 70
     3
  9
$SHADEDIF
 70
    70
  9
$TILEMODE
 70
     1
  9
$MAXACTVP
 70
    64
  9
$PINSBASE
 10
0.0
 20
0.0
 30
0.0
  9
$PLIMCHECK
 70
     0
  9
$PEXTMIN
 10
1.000000000000000E+20
 20
1.000000000000000E+20
 30
1.000000000000000E+20
  9
$PEXTMAX
 10
-1.000000000000000E+20
 20
-1.000000000000000E+20
 30
-1.000000000000000E+20
  9
$PLIMMIN
 10
0.0
 20
0.0
  9
$PLIMMAX
 10
12.0
 20
9.0
  9
$UNITMODE
 70
     0
  9
$VISRETAIN
 70
     0
  9
$PLINEGEN
 70
     1
  9
$PSLTSCALE
 70
     0
  9
$TREEDEPTH
 70
  3020
  9
$CMLSTYLE
  2
Standard
  9
$CMLJUST
 70
     0
  9
$CMLSCALE
 40
1.0
  9
$PROXYGRAPHICS
 70
     1
  9
$MEASUREMENT
 70
     0
  9
$CELWEIGHT
370
    -1
  9
$ENDCAPS
280
     0
  9
$JOINSTYLE
280
     0
  9
$LWDISPLAY
290
     0
  9
$INSUNITS
 70
     0
  9
$HYPERLINKBASE
  1

  9
$STYLESHEET
  1

  9
$XEDIT
290
     1
  9
$CEPSNTYPE
380
     0
  9
$PSTYLEMODE
290
     1
  9
$FINGERPRINTGUID
  2
{49B9182A-F546-B14C-9FCA-66794B5EF406}
  9
$VERSIONGUID
  2
{CB509FFB-0C32-B948-A38D-FBD604A85EAF}
  9
$EXTNAMES
290
     1
  9
$PSVPSCALE
 40
0.0
  9
$OLESTARTUP
290
     0
  0
ENDSEC
  0
SECTION
  2
CLASSES
  0
CLASS
  1
ACDBDICTIONARYWDFLT
  2
AcDbDictionaryWithDefault
  3
ObjectDBX Classes
 90
        0
280
     0
281
     0
  0
CLASS
  1
MATERIAL
  2
AcDbMaterial
  3
ObjectDBX Classes
 90
     1153
280
     0
281
     0
  0
CLASS
  1
VISUALSTYLE
  2
AcDbVisualStyle
  3
ObjectDBX Classes
 90
     4095
280
     0
281
     0
  0
CLASS
  1
SCALE
  2
AcDbScale
  3
ObjectDBX Classes
 90
     1153
280
     0
281
     0
  0
CLASS
  1
TABLESTYLE
  2
AcDbTableStyle
  3
ObjectDBX Classes
 90
     4095
280
     0
281
     0
  0
CLASS
  1
MLEADERSTYLE
  2
AcDbMLeaderStyle
  3
ACDB_MLEADERSTYLE_CLASS
 90
     4095
280
     0
281
     0
  0
CLASS
  1
ACDBSECTIONVIEWSTYLE
  2
AcDbSectionViewStyle
  3
ObjectDBX Classes
 90
     1025
280
     0
281
     0
  0
CLASS
  1
ACDBDETAILVIEWSTYLE
  2
AcDbDetailViewStyle
  3
ObjectDBX Classes
 90
     1025
280
     0
281
     0
  0
CLASS
  1
DICTIONARYVAR
  2
AcDbDictionaryVar
  3
ObjectDBX Classes
 90
        0
280
     0
281
     0
  0
CLASS
  1
CELLSTYLEMAP
  2
AcDbCellStyleMap
  3
ObjectDBX Classes
 90
     1152
280
     0
281
     0
  0
CLASS
  1
ACDBPLACEHOLDER
  2
AcDbPlaceHolder
  3
ObjectDBX Classes
 90
        0
280
     0
281
     0
  0
CLASS
  1
LAYOUT
  2
AcDbLayout
  3
ObjectDBX Classes
 90
        0
280
     0
281
     0
  0
ENDSEC
  0
SECTION
  2
TABLES
  0
TABLE
  2
VPORT
  5
45D
330
0
100
AcDbSymbolTable
 70
     1
  0
VPORT
  5
4C9
330
45D
100
AcDbSymbolTableRecord
100
AcDbViewportTableRecord
  2
*ACTIVE
 70
     0
 10
0.0
 20
0.0
 11
1.0
 21
1.0
 12
0.0000062864278334
 22
-3.531805672910195
 13
0.0
 23
0.0
 14
1.0
 24
1.0
 15
0.0
 25
0.0
 16
0.0
 26
0.0
 36
1.0
 17
0.0
 27
0.0
 37
0.0
 40
4028.496907418165
 41
2.358402971216341
 42
50.0
 43
0.0
 44
0.0
 50
0.0
 51
0.0
 71
     0
 72
  2000
 73
     1
 74
     1
 75
     0
 76
     0
 77
     0
 78
     0
281
     0
 65
     1
110
0.0
120
0.0
130
0.0
111
1.0
121
0.0
131
0.0
112
0.0
122
1.0
132
0.0
 79
     0
146
0.0
1001
ACAD_NAV_VCDISPLAY
1070
     3
  0
ENDTAB
  0
TABLE
  2
LTYPE
  5
45A
330
0
100
AcDbSymbolTable
 70
    12
  0
LTYPE
  5
4AF
330
45A
100
AcDbSymbolTableRecord
100
AcDbLinetypeTableRecord
  2
ByBlock
 70
     0
  3

 72
    65
 73
     0
 40
0.0
  0
LTYPE
  5
4B0
330
45A
100
AcDbSymbolTableRecord
100
AcDbLinetypeTableRecord
  2
ByLayer
 70
     0
  3

 72
    65
 73
     0
 40
0.0
  0
LTYPE
  5
4B1
330
45A
100
AcDbSymbolTableRecord
100
AcDbLinetypeTableRecord
  2
CONTINUOUS
 70
     0
  3
Solid line
 72
    65
 73
     0
 40
0.0
  0
LTYPE
  5
4CF
330
45A
100
AcDbSymbolTableRecord
100
AcDbLinetypeTableRecord
  2
STYLE_06
 70
     0
  3

 72
    65
 73
     4
 40
1.041641235351562
 49
0.625
 74
     0
 49
-0.208282470703125
 74
     0
 49
0.069427490234375
 74
     0
 49
-0.1389312744140625
 74
     0
  0
ENDTAB
  0
TABLE
  2
LAYER
  5
457
330
0
100
AcDbSymbolTable
 70
     5
  0
LAYER
  5
4A9
102
{ACAD_XDICTIONARY
360
4DE
102
}
330
457
100
AcDbSymbolTableRecord
100
AcDbLayerTableRecord
  2
0
 70
     0
 62
     7
  6
CONTINUOUS
370
    -3
390
464
  0
LAYER
  5
4C8
102
{ACAD_XDICTIONARY
360
4E0
102
}
330
457
100
AcDbSymbolTableRecord
100
AcDbLayerTableRecord
  2
DATA
 70
     0
 62
     7
  6
CONTINUOUS
370
    -3
390
464
  0
LAYER
  5
4D5
102
{ACAD_XDICTIONARY
360
4E2
102
}
330
457
100
AcDbSymbolTableRecord
100
AcDbLayerTableRecord
  2
HIBINO-BASE
 70
     0
 62
     7
  6
CONTINUOUS
370
    -3
390
464
  0
LAYER
  5
4D6
102
{ACAD_XDICTIONARY
360
4E4
102
}
330
457
100
AcDbSymbolTableRecord
100
AcDbLayerTableRecord
  2
SPEC
 70
     0
 62
     7
  6
CONTINUOUS
370
    -3
390
464
  0
LAYER
  5
4D7
102
{ACAD_XDICTIONARY
360
4E6
102
}
330
457
100
AcDbSymbolTableRecord
100
AcDbLayerTableRecord
  2
DIMNSIONS
 70
     0
 62
     7
  6
CONTINUOUS
370
    -3
390
464
  0
ENDTAB
  0
TABLE
  2
STYLE
  5
458
330
0
100
AcDbSymbolTable
 70
     3
  0
STYLE
  5
4AA
330
458
100
AcDbSymbolTableRecord
100
AcDbTextStyleTableRecord
  2
STANDARD
 70
     0
 40
0.0
 41
1.0
 50
0.0
 71
     0
 42
0.0
  3
txt
  4
BIGFONT.SHX
  0
ENDTAB
  0
TABLE
  2
VIEW
  5
45B
330
0
100
AcDbSymbolTable
 70
     0
  0
ENDTAB
  0
TABLE
  2
UCS
  5
45C
330
0
100
AcDbSymbolTable
 70
     0
  0
ENDTAB
  0
TABLE
  2
APPID
  5
45E
330
0
100
AcDbSymbolTable
 70
     4
  0
APPID
  5
4AB
330
45E
100
AcDbSymbolTableRecord
100
AcDbRegAppTableRecord
  2
ACAD
 70
     0
  0
APPID
  5
4B2
330
45E
100
AcDbSymbolTableRecord
100
AcDbRegAppTableRecord
  2
AcadAnnotative
 70
     0
  0
APPID
  5
4F2
330
45E
100
AcDbSymbolTableRecord
100
AcDbRegAppTableRecord
  2
ACAD_NAV_VCDISPLAY
 70
     0
  0
APPID
  5
52B
330
45E
100
AcDbSymbolTableRecord
100
AcDbRegAppTableRecord
  2
ACAD_MLEADERVER
 70
     0
  0
ENDTAB
  0
TABLE
  2
DIMSTYLE
  5
45F
330
0
100
AcDbSymbolTable
 70
     2
100
AcDbDimStyleTable
 71
     0
  0
DIMSTYLE
105
4AC
330
45F
100
AcDbSymbolTableRecord
100
AcDbDimStyleTableRecord
  2
STANDARD
 70
     0
279
     2
340
4AA
  0
ENDTAB
  0
TABLE
  2
BLOCK_RECORD
  5
456
330
0
100
AcDbSymbolTable
 70
     0
  0
BLOCK_RECORD
  5
4C4
330
456
100
AcDbSymbolTableRecord
100
AcDbBlockTableRecord
  2
*Model_Space
340
4C7
  0
BLOCK_RECORD
  5
4C0
330
456
100
AcDbSymbolTableRecord
100
AcDbBlockTableRecord
  2
*Paper_Space
340
4C3
  0
ENDTAB
  0
ENDSEC
  0
SECTION
  2
BLOCKS
  0
BLOCK
  5
4C5
330
4C4
100
AcDbEntity
  8
0
100
AcDbBlockBegin
  2
*Model_Space
 70
     0
 10
0.0
 20
0.0
 30
0.0
  3
*Model_Space
  1

  0
ENDBLK
  5
4C6
330
4C4
100
AcDbEntity
  8
0
100
AcDbBlockEnd
  0
BLOCK
  5
4C1
330
4C0
100
AcDbEntity
 67
     1
  8
0
100
AcDbBlockBegin
  2
*Paper_Space
 70
     0
 10
0.0
 20
0.0
 30
0.0
  3
*Paper_Space
  1

  0
ENDBLK
  5
4C2
330
4C0
100
AcDbEntity
 67
     1
  8
0
100
AcDbBlockEnd
  0
ENDSEC
  0
SECTION
  2
ENTITIES
  0
LINE
  5
2D
330
4C4
100
AcDbEntity
  8
HIBINO-BASE
  6
Continuous
 62
     7
100
AcDbLine
 10
-1350.0
 20
1999.44541
 30
0.0
 11
1350.0
 21
1999.44541
 31
0.0
  0
LINE
  5
2E
330
4C4
100
AcDbEntity
  8
HIBINO-BASE
  6
Continuous
 62
     7
100
AcDbLine
 10
1350.0
 20
-1900.55459
 30
0.0
 11
-1350.0
 21
-1900.55459
 31
0.0
  0
LINE
  5
2F
330
4C4
100
AcDbEntity
  8
HIBINO-BASE
  6
Continuous
 62
     7
100
AcDbLine
 10
-1350.0
 20
-1900.55459
 30
0.0
 11
-1350.0
 21
1999.44541
 31
0.0
  0
LINE
  5
30
330
4C4
100
AcDbEntity
  8
HIBINO-BASE
  6
Continuous
 62
     7
100
AcDbLine
 10
1350.0
 20
1999.44541
 30
0.0
 11
1350.0
 21
-1900.55459
 31
0.0
  0
LINE
  5
31
330
4C4
100
AcDbEntity
  8
HIBINO-BASE
  6
Continuous
 62
     7
100
AcDbLine
 10
0.0000000000001066
 20
-1563.05459
 30
0.0
 11
1350.0
 21
-1563.05459
 31
0.0
  0
LINE
  5
32
330
4C4
100
AcDbEntity
  8
HIBINO-BASE
  6
Continuous
 62
     7
100
AcDbLine
 10
0.0000000000001066
 20
-1900.55459
 30
0.0
 11
0.0000000000001066
 21
-1563.05459
 31
0.0
  0
TEXT
  5
33
330
4C4
100
AcDbEntity
  8
HIBINO-BASE
 62
     7
100
AcDbText
 10
13.50000000000019
 20
-1600.68499
 30
0.0
 40
24.4326171875
  1
NOTE
 41
0.7
 11
13.50000000000019
 21
-1576.252372812501
 31
0.0
100
AcDbText
 73
     3
  0
LINE
  5
34
330
4C4
100
AcDbEntity
  8
HIBINO-BASE
  6
Continuous
 62
     7
100
AcDbLine
 10
525.0000000000003
 20
-1900.55459
 30
0.0
 11
525.0000000000003
 21
-1563.05459
 31
0.0
  0
TEXT
  5
35
330
4C4
100
AcDbEntity
  8
HIBINO-BASE
 62
     7
100
AcDbText
 10
538.4999999999999
 20
-1600.68499
 30
0.0
 40
24.4326171875
  1
TITLE
 41
0.7
 11
538.4999999999999
 21
-1576.252372812501
 31
0.0
100
AcDbText
 73
     3
  0
LINE
  5
36
330
4C4
100
AcDbEntity
  8
HIBINO-BASE
  6
Continuous
 62
     7
100
AcDbLine
 10
0.0000000000001066
 20
-1750.55459
 30
0.0
 11
1350.0
 21
-1750.55459
 31
0.0
  0
TEXT
  5
37
330
4C4
100
AcDbEntity
  8
HIBINO-BASE
 62
     7
100
AcDbText
 10
725.9999999999997
 20
-1787.34019
 30
0.0
 40
24.4326171875
  1
DRAWN
 41
0.7
 11
725.9999999999997
 21
-1762.9075728125
 31
0.0
100
AcDbText
 73
     3
  0
TEXT
  5
38
330
4C4
100
AcDbEntity
  8
HIBINO-BASE
 62
     7
100
AcDbText
 10
351.0
 20
-1787.34019
 30
0.0
 40
24.4326171875
  1
DATE
 41
0.7
 11
351.0
 21
-1762.9075728125
 31
0.0
100
AcDbText
 73
     3
  0
TEXT
  5
39
330
4C4
100
AcDbEntity
  8
HIBINO-BASE
 62
     7
100
AcDbText
 10
201.0
 20
-1787.34019
 30
0.0
 40
24.4326171875
  1
SCALE
 41
0.7
 11
201.0
 21
-1762.9075728125
 31
0.0
100
AcDbText
 73
     3
  0
TEXT
  5
3A
330
4C4
100
AcDbEntity
  8
HIBINO-BASE
 62
     7
100
AcDbText
 10
538.4999999999999
 20
-1787.34019
 30
0.0
 40
24.4326171875
  1
DESIGN
 41
0.7
 11
538.4999999999999
 21
-1762.9075728125
 31
0.0
100
AcDbText
 73
     3
  0
TEXT
  5
3B
330
4C4
100
AcDbEntity
  8
HIBINO-BASE
 62
     7
100
AcDbText
 10
1100.999999999999
 20
-1787.34019
 30
0.0
 40
24.4326171875
  1
DRAWING NO.
 41
0.7
 11
1100.999999999999
 21
-1762.9075728125
 31
0.0
100
AcDbText
 73
     3
  0
TEXT
  5
3C
330
4C4
100
AcDbEntity
  8
HIBINO-BASE
 62
     7
100
AcDbText
 10
913.4999999999996
 20
-1787.34019
 30
0.0
 40
24.4326171875
  1
CHECK
 41
0.7
 11
913.4999999999996
 21
-1762.9075728125
 31
0.0
100
AcDbText
 73
     3
  0
LINE
  5
3D
330
4C4
100
AcDbEntity
  8
HIBINO-BASE
  6
Continuous
 62
     7
100
AcDbLine
 10
215.6250000000001
 20
-1881.80459
 30
0.0
 11
271.8750000000004
 21
-1825.55459
 31
0.0
  0
TEXT
  5
3E
330
4C4
100
AcDbEntity
  8
HIBINO-BASE
 62
     7
100
AcDbText
 10
206.2500000000001
 20
-1842.18874
 30
0.0
 40
24.4326171875
  1
1
 41
0.7
 11
206.2500000000001
 21
-1817.7561228125
 31
0.0
100
AcDbText
 73
     3
  0
LINE
  5
3F
330
4C4
100
AcDbEntity
  8
HIBINO-BASE
  6
Continuous
 62
     7
100
AcDbLine
 10
187.5000000000001
 20
-1900.55459
 30
0.0
 11
187.5000000000001
 21
-1750.55459
 31
0.0
  0
LINE
  5
40
330
4C4
100
AcDbEntity
  8
HIBINO-BASE
  6
Continuous
 62
     7
100
AcDbLine
 10
337.4999999999999
 20
-1900.55459
 30
0.0
 11
337.4999999999999
 21
-1750.55459
 31
0.0
  0
LINE
  5
41
330
4C4
100
AcDbEntity
  8
HIBINO-BASE
  6
Continuous
 62
     7
100
AcDbLine
 10
712.4999999999996
 20
-1750.55459
 30
0.0
 11
712.4999999999996
 21
-1900.55459
 31
0.0
  0
LINE
  5
42
330
4C4
100
AcDbEntity
  8
HIBINO-BASE
  6
Continuous
 62
     7
100
AcDbLine
 10
1087.5
 20
-1750.55459
 30
0.0
 11
1087.5
 21
-1900.55459
 31
0.0
  0
LINE
  5
43
330
4C4
100
AcDbEntity
  8
HIBINO-BASE
  6
Continuous
 62
     7
100
AcDbLine
 10
899.9999999999996
 20
-1900.55459
 30
0.0
 11
899.9999999999996
 21
-1750.55459
 31
0.0
  0
TEXT
  5
44
330
4C4
100
AcDbEntity
  8
HIBINO-BASE
 62
     7
100
AcDbText
 10
350.3481000000002
 20
-1857.59989
 30
0.0
 40
24.4326171875
  1
'17.02.
 41
0.7
 11
350.3481000000002
 21
-1833.1672728125
 31
0.0
100
AcDbText
 73
     3
  0
TEXT
  5
45
330
4C4
100
AcDbEntity
  8
HIBINO-BASE
 62
     7
100
AcDbText
 10
262.5
 20
-1870.31374
 30
0.0
 40
24.4326171875
  1
15
 41
0.7
 11
262.5
 21
-1845.8811228125
 31
0.0
100
AcDbText
 73
     3
  0
TEXT
  5
46
330
4C4
100
AcDbEntity
  8
HIBINO-BASE
 62
     7
100
AcDbText
 10
735.0871501655194
 20
-1857.59989
 30
0.0
 40
24.4326171875
  1
N.Sasaki
 41
0.7
 11
735.0871501655194
 21
-1833.1672728125
 31
0.0
100
AcDbText
 73
     3
  0
TEXT
  5
47
330
4C4
100
AcDbEntity
  8
HIBINO-BASE
 62
     7
100
AcDbText
 10
58.25000000000041
 20
-1870.91459
 30
0.0
 40
48.865234375
  1
A4
 41
0.7
 11
58.25000000000041
 21
-1822.049355625
 31
0.0
100
AcDbText
 73
     3
  0
TEXT
  5
48
330
4C4
100
AcDbEntity
  8
HIBINO-BASE
 62
     7
100
AcDbText
 10
14.37500000000003
 20
-1789.846415
 30
0.0
 40
24.4326171875
  1
PAPER SIZE
 41
0.7
 11
14.37500000000003
 21
-1765.4137978125
 31
0.0
100
AcDbText
 73
     3
  0
TEXT
  5
49
330
4C4
100
AcDbEntity
  8
HIBINO-BASE
 62
     7
100
AcDbText
 10
-1242.24
 20
-1996.684757
 30
0.0
 40
54.00066269531249
  1
Hibino Corporation
 41
0.7
 11
-1242.24
 21
-1942.684094304688
 31
0.0
100
AcDbText
 73
     3
  0
TEXT
  5
4A
330
4C4
100
AcDbEntity
  8
HIBINO-BASE
 62
     7
100
AcDbText
 10
751.02585
 20
-1996.684757
 30
0.0
 40
54.00066269531249
  1
ヒビノ株式会社
 41
0.7
 11
751.02585
 21
-1942.684094304688
 31
0.0
100
AcDbText
 73
     3
  0
LINE
  5
4B
330
4C4
100
AcDbEntity
  8
SPEC
  6
Continuous
 62
     7
100
AcDbLine
 10
-1237.5
 20
1849.44541
 30
0.0
 11
1200.0
 21
1849.44541
 31
0.0
  0
LINE
  5
4C
330
4C4
100
AcDbEntity
  8
SPEC
  6
Continuous
 62
     7
100
AcDbLine
 10
-1237.5
 20
1849.44541
 30
0.0
 11
-1237.5
 21
836.94541
 31
0.0
  0
TEXT
  5
4D
330
4C4
100
AcDbEntity
  8
SPEC
 62
     7
100
AcDbText
 10
-1218.75
 20
1870.344459999999
 30
0.0
 40
36.64892578125
  1
仕様
 41
0.7
 11
-1218.75
 21
1906.993385781249
 31
0.0
100
AcDbText
 73
     3
  0
LINE
  5
4E
330
4C4
100
AcDbEntity
  8
SPEC
  6
Continuous
 62
     7
100
AcDbLine
 10
-600.0
 20
1849.44541
 30
0.0
 11
-600.0
 21
836.94541
 31
0.0
  0
LINE
  5
4F
330
4C4
100
AcDbEntity
  8
SPEC
  6
Continuous
 62
     7
100
AcDbLine
 10
1200.0
 20
1849.44541
 30
0.0
 11
1200.0
 21
836.94541
 31
0.0
  0
TEXT
  5
50
330
4C4
100
AcDbEntity
  8
SPEC
 62
     7
100
AcDbText
 10
-1224.0
 20
961.2641766666667
 30
0.0
 40
28.50472005208334
  1
付属品
 41
0.7
 11
-1224.0
 21
989.7688967187502
 31
0.0
100
AcDbText
 73
     3
  0
TEXT
  5
51
330
4C4
100
AcDbEntity
  8
SPEC
 62
     7
100
AcDbText
 10
-1224.0
 20
1073.764176666667
 30
0.0
 40
28.50472005208334
  1
寸法(φ×H)
 41
0.7
 11
-1224.0
 21
1102.26889671875
 31
0.0
100
AcDbText
 73
     3
  0
TEXT
  5
52
330
4C4
100
AcDbEntity
  8
SPEC
 62
     7
100
AcDbText
 10
-1224.0
 20
1017.514176666667
 30
0.0
 40
28.50472005208334
  1
質量
 41
0.7
 11
-1224.0
 21
1046.01889671875
 31
0.0
100
AcDbText
 73
     3
  0
TEXT
  5
53
330
4C4
100
AcDbEntity
  8
SPEC
 62
     7
100
AcDbText
 10
-586.5
 20
1073.764176666667
 30
0.0
 40
28.50472005208334
  1
287×427mm(除突起部)
 41
0.7
 11
-586.5
 21
1102.26889671875
 31
0.0
100
AcDbText
 73
     3
  0
TEXT
  5
54
330
4C4
100
AcDbEntity
  8
SPEC
 62
     7
100
AcDbText
 10
-586.5
 20
1017.514176666667
 30
0.0
 40
28.50472005208334
  1
5.4kg
 41
0.7
 11
-586.5
 21
1046.01889671875
 31
0.0
100
AcDbText
 73
     3
  0
LINE
  5
55
330
4C4
100
AcDbEntity
  8
SPEC
  6
Continuous
 62
     7
100
AcDbLine
 10
-1237.5
 20
1793.195409999999
 30
0.0
 11
1200.0
 21
1793.195409999999
 31
0.0
  0
LINE
  5
56
330
4C4
100
AcDbEntity
  8
SPEC
  6
Continuous
 62
     7
100
AcDbLine
 10
-1237.5
 20
1736.945409999999
 30
0.0
 11
1200.0
 21
1736.945409999999
 31
0.0
  0
LINE
  5
57
330
4C4
100
AcDbEntity
  8
SPEC
  6
Continuous
 62
     7
100
AcDbLine
 10
-1237.5
 20
1680.695409999999
 30
0.0
 11
1200.0
 21
1680.695409999999
 31
0.0
  0
LINE
  5
58
330
4C4
100
AcDbEntity
  8
SPEC
  6
Continuous
 62
     7
100
AcDbLine
 10
-1237.5
 20
1624.445409999999
 30
0.0
 11
1200.0
 21
1624.445409999999
 31
0.0
  0
LINE
  5
59
330
4C4
100
AcDbEntity
  8
SPEC
  6
Continuous
 62
     7
100
AcDbLine
 10
-712.5
 20
1511.94541
 30
0.0
 11
1200.0
 21
1511.94541
 31
0.0
  0
LINE
  5
5A
330
4C4
100
AcDbEntity
  8
SPEC
  6
Continuous
 62
     7
100
AcDbLine
 10
-1237.5
 20
1399.44541
 30
0.0
 11
1200.0
 21
1399.44541
 31
0.0
  0
LINE
  5
5B
330
4C4
100
AcDbEntity
  8
SPEC
  6
Continuous
 62
     7
100
AcDbLine
 10
-712.5
 20
1343.19541
 30
0.0
 11
1200.0
 21
1343.19541
 31
0.0
  0
LINE
  5
5C
330
4C4
100
AcDbEntity
  8
SPEC
  6
Continuous
 62
     7
100
AcDbLine
 10
-1237.5
 20
1286.945409999999
 30
0.0
 11
1200.0
 21
1286.945409999999
 31
0.0
  0
LINE
  5
5D
330
4C4
100
AcDbEntity
  8
SPEC
  6
Continuous
 62
     7
100
AcDbLine
 10
-1237.5
 20
1230.69541
 30
0.0
 11
1200.0
 21
1230.69541
 31
0.0
  0
LINE
  5
5E
330
4C4
100
AcDbEntity
  8
SPEC
  6
Continuous
 62
     7
100
AcDbLine
 10
-1237.5
 20
1174.445409999999
 30
0.0
 11
1200.0
 21
1174.445409999999
 31
0.0
  0
LINE
  5
5F
330
4C4
100
AcDbEntity
  8
SPEC
  6
Continuous
 62
     7
100
AcDbLine
 10
-1237.5
 20
1118.19541
 30
0.0
 11
1200.0
 21
1118.19541
 31
0.0
  0
LINE
  5
60
330
4C4
100
AcDbEntity
  8
SPEC
  6
Continuous
 62
     7
100
AcDbLine
 10
-1237.5
 20
1061.94541
 30
0.0
 11
1200.0
 21
1061.94541
 31
0.0
  0
LINE
  5
61
330
4C4
100
AcDbEntity
  8
SPEC
  6
Continuous
 62
     7
100
AcDbLine
 10
-1237.5
 20
1005.69541
 30
0.0
 11
1200.0
 21
1005.69541
 31
0.0
  0
TEXT
  5
62
330
4C4
100
AcDbEntity
  8
SPEC
 62
     7
100
AcDbText
 10
-1224.0
 20
1805.014176666666
 30
0.0
 40
28.50472005208334
  1
周波数レンジ(-10dB)
 41
0.7
 11
-1224.0
 21
1833.518896718749
 31
0.0
100
AcDbText
 73
     3
  0
TEXT
  5
63
330
4C4
100
AcDbEntity
  8
SPEC
 62
     7
100
AcDbText
 10
-1200.0
 20
786.6649999999999
 30
0.0
 40
28.50472005208334
  1
※1 2時間、ピンクノイズ:IEC/クレストファクター6dB
 41
0.7
 11
-1200.0
 21
815.1697200520834
 31
0.0
100
AcDbText
 73
     3
  0
TEXT
  5
64
330
4C4
100
AcDbEntity
  8
SPEC
 62
     7
100
AcDbText
 10
-1200.0
 20
729.0688105676657
 30
0.0
 40
28.50472005208334
  1
※2 断面が円形のケーブルに限る
 41
0.7
 11
-1200.0
 21
757.573530619749
 31
0.0
100
AcDbText
 73
     3
  0
TEXT
  5
65
330
4C4
100
AcDbEntity
  8
SPEC
 62
     7
100
AcDbText
 10
-1224.0
 20
1748.764176666666
 30
0.0
 40
28.50472005208334
  1
カバレージ角(水平×垂直)
 41
0.7
 11
-1224.0
 21
1777.268896718749
 31
0.0
100
AcDbText
 73
     3
  0
TEXT
  5
66
330
4C4
100
AcDbEntity
  8
SPEC
 62
     7
100
AcDbText
 10
-1224.0
 20
1692.514176666666
 30
0.0
 40
28.50472005208334
  1
最大音圧レベル
 41
0.7
 11
-1224.0
 21
1721.018896718749
 31
0.0
100
AcDbText
 73
     3
  0
TEXT
  5
67
330
4C4
100
AcDbEntity
  8
SPEC
 62
     7
100
AcDbText
 10
-1224.0
 20
1636.264176666666
 30
0.0
 40
28.50472005208334
  1
感度(1W、1m)
 41
0.7
 11
-1224.0
 21
1664.768896718749
 31
0.0
100
AcDbText
 73
     3
  0
TEXT
  5
68
330
4C4
100
AcDbEntity
  8
SPEC
 62
     7
100
AcDbText
 10
-1224.0
 20
1580.014176666666
 30
0.0
 40
28.50472005208334
  1
公称インピーダンス
 41
0.7
 11
-1224.0
 21
1608.518896718749
 31
0.0
100
AcDbText
 73
     3
  0
TEXT
  5
69
330
4C4
100
AcDbEntity
  8
SPEC
 62
     7
100
AcDbText
 10
-1224.0
 20
1523.764176666667
 30
0.0
 40
28.50472005208334
  1
トランス・タップ
 41
0.7
 11
-1224.0
 21
1552.26889671875
 31
0.0
100
AcDbText
 73
     3
  0
TEXT
  5
6A
330
4C4
100
AcDbEntity
  8
SPEC
 62
     7
100
AcDbText
 10
-1224.0
 20
1411.264176666667
 30
0.0
 40
28.50472005208334
  1
許容入力(プログラム/ピンク) ※1
 41
0.7
 11
-1224.0
 21
1439.76889671875
 31
0.0
100
AcDbText
 73
     3
  0
TEXT
  5
6B
330
4C4
100
AcDbEntity
  8
SPEC
 62
     7
100
AcDbText
 10
-1224.0
 20
1355.014176666667
 30
0.0
 40
28.50472005208334
  1
ドライバー構成
 41
0.7
 11
-1224.0
 21
1383.51889671875
 31
0.0
100
AcDbText
 73
     3
  0
TEXT
  5
6C
330
4C4
100
AcDbEntity
  8
SPEC
 62
     7
100
AcDbText
 10
-1224.0
 20
1242.514176666667
 30
0.0
 40
28.50472005208334
  1
入力
 41
0.7
 11
-1224.0
 21
1271.01889671875
 31
0.0
100
AcDbText
 73
     3
  0
TEXT
  5
6D
330
4C4
100
AcDbEntity
  8
SPEC
 62
     7
100
AcDbText
 10
-586.5
 20
1805.014176666666
 30
0.0
 40
28.50472005208334
  1
55Hz～18kHz
 41
0.7
 11
-586.5
 21
1833.518896718749
 31
0.0
100
AcDbText
 73
     3
  0
TEXT
  5
6E
330
4C4
100
AcDbEntity
  8
SPEC
 62
     7
100
AcDbText
 10
-586.5
 20
1748.764176666666
 30
0.0
 40
28.50472005208334
  1
360°×160°
 41
0.7
 11
-586.5
 21
1777.268896718749
 31
0.0
100
AcDbText
 73
     3
  0
TEXT
  5
6F
330
4C4
100
AcDbEntity
  8
SPEC
 62
     7
100
AcDbText
 10
-586.5
 20
1692.514176666666
 30
0.0
 40
28.50472005208334
  1
105dB SPL
 41
0.7
 11
-586.5
 21
1721.018896718749
 31
0.0
100
AcDbText
 73
     3
  0
TEXT
  5
70
330
4C4
100
AcDbEntity
  8
SPEC
 62
     7
100
AcDbText
 10
-586.5
 20
1636.264176666666
 30
0.0
 40
28.50472005208334
  1
86dB SPL
 41
0.7
 11
-586.5
 21
1664.768896718749
 31
0.0
100
AcDbText
 73
     3
  0
TEXT
  5
71
330
4C4
100
AcDbEntity
  8
SPEC
 62
     7
100
AcDbText
 10
-586.5
 20
1580.014176666666
 30
0.0
 40
28.50472005208334
  1
8Ω
 41
0.7
 11
-586.5
 21
1608.518896718749
 31
0.0
100
AcDbText
 73
     3
  0
TEXT
  5
72
330
4C4
100
AcDbEntity
  8
SPEC
 62
     7
100
AcDbText
 10
-699.0000000000001
 20
1523.764176666667
 30
0.0
 40
28.50472005208334
  1
70V
 41
0.7
 11
-699.0000000000001
 21
1552.26889671875
 31
0.0
100
AcDbText
 73
     3
  0
TEXT
  5
73
330
4C4
100
AcDbEntity
  8
SPEC
 62
     7
100
AcDbText
 10
-586.5
 20
1411.264176666667
 30
0.0
 40
28.50472005208334
  1
160W/80W
 41
0.7
 11
-586.5
 21
1439.76889671875
 31
0.0
100
AcDbText
 73
     3
  0
TEXT
  5
74
330
4C4
100
AcDbEntity
  8
SPEC
 62
     7
100
AcDbText
 10
-699.0000000000001
 20
1355.014176666667
 30
0.0
 40
28.50472005208334
  1
LF^I
 41
0.7
 11
-699.0000000000001
 21
1383.51889671875
 31
0.0
100
AcDbText
 73
     3
  0
LINE
  5
75
330
4C4
100
AcDbEntity
  8
SPEC
  6
Continuous
 62
     7
100
AcDbLine
 10
-1237.5
 20
1455.695409999999
 30
0.0
 11
1200.0
 21
1455.695409999999
 31
0.0
  0
LINE
  5
76
330
4C4
100
AcDbEntity
  8
SPEC
  6
Continuous
 62
     7
100
AcDbLine
 10
-1237.5
 20
1568.195409999999
 30
0.0
 11
1200.0
 21
1568.195409999999
 31
0.0
  0
LINE
  5
77
330
4C4
100
AcDbEntity
  8
SPEC
  6
Continuous
 62
     7
100
AcDbLine
 10
-712.5
 20
1568.195409999999
 30
0.0
 11
-712.5
 21
1455.695409999999
 31
0.0
  0
TEXT
  5
78
330
4C4
100
AcDbEntity
  8
SPEC
 62
     7
100
AcDbText
 10
-699.0000000000001
 20
1467.514176666667
 30
0.0
 40
28.50472005208334
  1
100V
 41
0.7
 11
-699.0000000000001
 21
1496.01889671875
 31
0.0
100
AcDbText
 73
     3
  0
TEXT
  5
79
330
4C4
100
AcDbEntity
  8
SPEC
 62
     7
100
AcDbText
 10
-586.5
 20
1523.764176666667
 30
0.0
 40
28.50472005208334
  1
30W、15W、7.5W、3.8W
 41
0.7
 11
-586.5
 21
1552.26889671875
 31
0.0
100
AcDbText
 73
     3
  0
TEXT
  5
7A
330
4C4
100
AcDbEntity
  8
SPEC
 62
     7
100
AcDbText
 10
-586.5
 20
1467.514176666667
 30
0.0
 40
28.50472005208334
  1
30W、15W、7.5W
 41
0.7
 11
-586.5
 21
1496.01889671875
 31
0.0
100
AcDbText
 73
     3
  0
LINE
  5
7B
330
4C4
100
AcDbEntity
  8
SPEC
  6
Continuous
 62
     7
100
AcDbLine
 10
-712.5
 20
1399.44541
 30
0.0
 11
-712.5
 21
1286.945409999999
 31
0.0
  0
TEXT
  5
7C
330
4C4
100
AcDbEntity
  8
SPEC
 62
     7
100
AcDbText
 10
-699.0000000000001
 20
1298.764176666667
 30
0.0
 40
28.50472005208334
  1
HF
 41
0.7
 11
-699.0000000000001
 21
1327.26889671875
 31
0.0
100
AcDbText
 73
     3
  0
TEXT
  5
7D
330
4C4
100
AcDbEntity
  8
SPEC
 62
     7
100
AcDbText
 10
-586.5
 20
1355.014176666667
 30
0.0
 40
28.50472005208334
  1
5.25インチ(135mm)
 41
0.7
 11
-586.5
 21
1383.51889671875
 31
0.0
100
AcDbText
 73
     3
  0
TEXT
  5
7E
330
4C4
100
AcDbEntity
  8
SPEC
 62
     7
100
AcDbText
 10
-586.5
 20
1298.764176666667
 30
0.0
 40
28.50472005208334
  1
0.75インチ(19mm)
 41
0.7
 11
-586.5
 21
1327.26889671875
 31
0.0
100
AcDbText
 73
     3
  0
TEXT
  5
7F
330
4C4
100
AcDbEntity
  8
SPEC
 62
     7
100
AcDbText
 10
-1224.0
 20
1186.264176666667
 30
0.0
 40
28.50472005208334
  1
適合ケーブル
 41
0.7
 11
-1224.0
 21
1214.76889671875
 31
0.0
100
AcDbText
 73
     3
  0
TEXT
  5
80
330
4C4
100
AcDbEntity
  8
SPEC
 62
     7
100
AcDbText
 10
-1224.0
 20
1130.014176666667
 30
0.0
 40
28.50472005208334
  1
エンクロージャー
 41
0.7
 11
-1224.0
 21
1158.51889671875
 31
0.0
100
AcDbText
 73
     3
  0
TEXT
  5
81
330
4C4
100
AcDbEntity
  8
SPEC
 62
     7
100
AcDbText
 10
-586.5
 20
1242.514176666667
 30
0.0
 40
28.50472005208334
  1
先バラケーブル^I
 41
0.7
 11
-586.5
 21
1271.01889671875
 31
0.0
100
AcDbText
 73
     3
  0
TEXT
  5
82
330
4C4
100
AcDbEntity
  8
SPEC
 62
     7
100
AcDbText
 10
-586.5
 20
1186.264176666667
 30
0.0
 40
28.50472005208334
  1
φ4.0～9.0mm ※2
 41
0.7
 11
-586.5
 21
1214.76889671875
 31
0.0
100
AcDbText
 73
     3
  0
TEXT
  5
83
330
4C4
100
AcDbEntity
  8
SPEC
 62
     7
100
AcDbText
 10
-586.5
 20
1130.014176666667
 30
0.0
 40
28.50472005208334
  1
ポリエチレン、緑
 41
0.7
 11
-586.5
 21
1158.51889671875
 31
0.0
100
AcDbText
 73
     3
  0
TEXT
  5
84
330
4C4
100
AcDbEntity
  8
SPEC
 62
     7
100
AcDbText
 10
-586.5
 20
961.2641766666667
 30
0.0
 40
28.50472005208334
  1
シールドプレート×1、シールドプレート用ねじ×4、防水ケーブルグランド×2、
 41
0.7
 11
-586.5
 21
989.7688967187502
 31
0.0
100
AcDbText
 73
     3
  0
TEXT
  5
85
330
4C4
100
AcDbEntity
  8
SPEC
 62
     7
100
AcDbText
 10
-586.5
 20
905.0141766666667
 30
0.0
 40
28.50472005208334
  1
ジェル入りワイヤーナットコネクター×2、セキュリティーねじ×1、セキュリティーねじ穴キャップ×1、
 41
0.7
 11
-586.5
 21
933.5188967187502
 31
0.0
100
AcDbText
 73
     3
  0
TEXT
  5
86
330
4C4
100
AcDbEntity
  8
SPEC
 62
     7
100
AcDbText
 10
-586.5
 20
848.7641766666664
 30
0.0
 40
28.50472005208334
  1
セキュリティーねじ用スクリュードライバー×1
 41
0.7
 11
-586.5
 21
877.2688967187498
 31
0.0
100
AcDbText
 73
     3
  0
LINE
  5
87
330
4C4
100
AcDbEntity
  8
SPEC
  6
Continuous
 62
     7
100
AcDbLine
 10
-1237.5
 20
836.94541
 30
0.0
 11
1200.0
 21
836.94541
 31
0.0
  0
TEXT
  5
88
330
4C4
100
AcDbEntity
  8
DIMNSIONS
 62
     7
100
AcDbText
 10
-299.9999999999999
 20
-1716.512239999999
 30
0.0
 40
36.64892578125
  1
(単位：mm)
 41
0.7
 11
-299.9999999999999
 21
-1679.863314218749
 31
0.0
100
AcDbText
 73
     3
  0
LINE
  5
89
330
4C4
100
AcDbEntity
  8
DIMNSIONS
  6
Continuous
 62
     7
100
AcDbLine
 10
-730.2021528949636
 20
-248.0000844334711
 30
0.0
 11
-1015.0
 21
-248.0000844334711
 31
0.0
  0
LINE
  5
8A
330
4C4
100
AcDbEntity
  8
DIMNSIONS
  6
Continuous
 62
     7
100
AcDbLine
 10
-884.1901042417132
 20
-674.9999999999999
 30
0.0
 11
-1015.0
 21
-674.9999999999999
 31
0.0
  0
LINE
  5
8B
330
4C4
100
AcDbEntity
  8
DIMNSIONS
  6
Continuous
 62
     7
100
AcDbLine
 10
-1000.0
 20
-248.0000844334711
 30
0.0
 11
-1000.0
 21
-674.9999999999999
 31
0.0
  0
LINE
  5
8C
330
4C4
100
AcDbEntity
  8
DIMNSIONS
  6
Continuous
 62
     7
100
AcDbLine
 10
-1000.0
 20
-248.0000844334711
 30
0.0
 11
-989.9494030727465
 21
-285.5094228123773
 31
0.0
  0
LINE
  5
8D
330
4C4
100
AcDbEntity
  8
DIMNSIONS
  6
Continuous
 62
     7
100
AcDbLine
 10
-1000.0
 20
-248.0000844334711
 30
0.0
 11
-1010.050596927253
 21
-285.5094228123773
 31
0.0
  0
LINE
  5
8E
330
4C4
100
AcDbEntity
  8
DIMNSIONS
  6
Continuous
 62
     7
100
AcDbLine
 10
-1000.0
 20
-674.9999999999999
 30
0.0
 11
-1010.050596927253
 21
-637.4906616210936
 31
0.0
  0
LINE
  5
8F
330
4C4
100
AcDbEntity
  8
DIMNSIONS
  6
Continuous
 62
     7
100
AcDbLine
 10
-1000.0
 20
-674.9999999999999
 30
0.0
 11
-989.9494030727465
 21
-637.4906616210936
 31
0.0
  0
TEXT
  5
90
330
4C4
100
AcDbEntity
  8
DIMNSIONS
 62
     7
100
AcDbText
 10
-1014.908333333333
 20
-501.1875422167354
 30
0.0
 40
40.72102864583334
  1
427
 50
90.0
 41
0.7
 11
-1055.629361979166
 21
-501.1875422167354
 31
0.0
100
AcDbText
 73
     3
  0
LINE
  5
91
330
4C4
100
AcDbEntity
  8
DIMNSIONS
  6
Continuous
 62
     7
100
AcDbLine
 10
-701.6953421836576
 20
-1069.331221446704
 30
0.0
 11
-750.0
 21
-1150.0
 31
0.0
  0
LINE
  5
92
330
4C4
100
AcDbEntity
  8
DIMNSIONS
  6
Continuous
 62
     7
100
AcDbLine
 10
-701.6953421836576
 20
-1069.331221446704
 30
0.0
 11
-711.7459391109113
 21
-1106.840559825611
 31
0.0
  0
LINE
  5
93
330
4C4
100
AcDbEntity
  8
DIMNSIONS
  6
Continuous
 62
     7
100
AcDbLine
 10
-701.6953421836576
 20
-1069.331221446704
 30
0.0
 11
-729.1540836353102
 21
-1096.789962898357
 31
0.0
  0
LINE
  5
94
330
4C4
100
AcDbEntity
  8
DIMNSIONS
  6
Continuous
 62
     7
100
AcDbLine
 10
-750.0
 20
-1150.0
 30
0.0
 11
-780.0
 21
-1150.0
 31
0.0
  0
TEXT
  5
95
330
4C4
100
AcDbEntity
  8
DIMNSIONS
 62
     7
100
AcDbText
 10
-1097.5
 20
-1169.05
 30
0.0
 40
40.72102864583334
  1
φ6.6(3ヵ所)
 41
0.7
 11
-1097.5
 21
-1128.328971354166
 31
0.0
100
AcDbText
 73
     3
  0
LINE
  5
96
330
4C4
100
AcDbEntity
  8
DIMNSIONS
  6
Continuous
 62
     7
100
AcDbLine
 10
-628.8040623457935
 20
-775.4071091051351
 30
0.0
 11
-599.9999999999999
 21
-725.0
 31
0.0
  0
LINE
  5
97
330
4C4
100
AcDbEntity
  8
DIMNSIONS
  6
Continuous
 62
     7
100
AcDbLine
 10
-628.8040623457935
 20
-775.4071091051351
 30
0.0
 11
-618.7534654185399
 21
-737.8977707262289
 31
0.0
  0
LINE
  5
98
330
4C4
100
AcDbEntity
  8
DIMNSIONS
  6
Continuous
 62
     7
100
AcDbLine
 10
-628.8040623457935
 20
-775.4071091051351
 30
0.0
 11
-601.345320894141
 21
-747.9483676534828
 31
0.0
  0
LINE
  5
99
330
4C4
100
AcDbEntity
  8
DIMNSIONS
  6
Continuous
 62
     7
100
AcDbLine
 10
-599.9999999999999
 20
-725.0
 30
0.0
 11
-569.9999999999999
 21
-725.0
 31
0.0
  0
TEXT
  5
9A
330
4C4
100
AcDbEntity
  8
DIMNSIONS
 62
     7
100
AcDbText
 10
-569.9999999999999
 20
-744.0500000000001
 30
0.0
 40
40.72102864583334
  1
φ287
 41
0.7
 11
-569.9999999999999
 21
-703.3289713541667
 31
0.0
100
AcDbText
 73
     3
  0
LINE
  5
9B
330
4C4
100
AcDbEntity
  8
DIMNSIONS
  6
Continuous
 62
     7
100
AcDbLine
 10
-730.0000000000182
 20
-1066.500000000026
 30
0.0
 11
-940.0
 21
-1066.500000000026
 31
0.0
  0
LINE
  5
9C
330
4C4
100
AcDbEntity
  8
DIMNSIONS
  6
Continuous
 62
     7
100
AcDbLine
 10
-729.9999999999991
 20
-756.49999999999
 30
0.0
 11
-940.0
 21
-756.49999999999
 31
0.0
  0
LINE
  5
9D
330
4C4
100
AcDbEntity
  8
DIMNSIONS
  6
Continuous
 62
     7
100
AcDbLine
 10
-925.0
 20
-1066.500000000026
 30
0.0
 11
-925.0
 21
-756.49999999999
 31
0.0
  0
LINE
  5
9E
330
4C4
100
AcDbEntity
  8
DIMNSIONS
  6
Continuous
 62
     7
100
AcDbLine
 10
-925.0
 20
-1066.500000000026
 30
0.0
 11
-935.0505969272536
 21
-1028.99066162112
 31
0.0
  0
LINE
  5
9F
330
4C4
100
AcDbEntity
  8
DIMNSIONS
  6
Continuous
 62
     7
100
AcDbLine
 10
-925.0
 20
-1066.500000000026
 30
0.0
 11
-914.9494030727465
 21
-1028.99066162112
 31
0.0
  0
LINE
  5
A0
330
4C4
100
AcDbEntity
  8
DIMNSIONS
  6
Continuous
 62
     7
100
AcDbLine
 10
-925.0
 20
-756.49999999999
 30
0.0
 11
-914.9494030727465
 21
-794.0093383788961
 31
0.0
  0
LINE
  5
A1
330
4C4
100
AcDbEntity
  8
DIMNSIONS
  6
Continuous
 62
     7
100
AcDbLine
 10
-925.0
 20
-756.49999999999
 30
0.0
 11
-935.0505969272536
 21
-794.0093383788961
 31
0.0
  0
TEXT
  5
A2
330
4C4
100
AcDbEntity
  8
DIMNSIONS
 62
     7
100
AcDbText
 10
-939.9083333333335
 20
-951.1875000000085
 30
0.0
 40
40.72102864583334
  1
310
 50
90.0
 41
0.7
 11
-980.6293619791668
 21
-951.1875000000085
 31
0.0
100
AcDbText
 73
     3
  0
LINE
  5
A3
330
4C4
100
AcDbEntity
  8
DIMNSIONS
  6
Continuous
 62
     7
100
AcDbLine
 10
-729.9999999999991
 20
-756.49999999999
 30
0.0
 11
-1015.0
 21
-756.49999999999
 31
0.0
  0
LINE
  5
A4
330
4C4
100
AcDbEntity
  8
DIMNSIONS
  6
Continuous
 62
     7
100
AcDbLine
 10
-729.9999999999991
 20
-1076.500000000026
 30
0.0
 11
-1015.0
 21
-1076.500000000026
 31
0.0
  0
LINE
  5
A5
330
4C4
100
AcDbEntity
  8
DIMNSIONS
  6
Continuous
 62
     7
100
AcDbLine
 10
-1000.0
 20
-756.49999999999
 30
0.0
 11
-1000.0
 21
-1076.500000000026
 31
0.0
  0
LINE
  5
A6
330
4C4
100
AcDbEntity
  8
DIMNSIONS
  6
Continuous
 62
     7
100
AcDbLine
 10
-1000.0
 20
-756.49999999999
 30
0.0
 11
-989.9494030727465
 21
-794.0093383788961
 31
0.0
  0
LINE
  5
A7
330
4C4
100
AcDbEntity
  8
DIMNSIONS
  6
Continuous
 62
     7
100
AcDbLine
 10
-1000.0
 20
-756.49999999999
 30
0.0
 11
-1010.050596927253
 21
-794.0093383788961
 31
0.0
  0
LINE
  5
A8
330
4C4
100
AcDbEntity
  8
DIMNSIONS
  6
Continuous
 62
     7
100
AcDbLine
 10
-1000.0
 20
-1076.500000000026
 30
0.0
 11
-1010.050596927253
 21
-1038.99066162112
 31
0.0
  0
LINE
  5
A9
330
4C4
100
AcDbEntity
  8
DIMNSIONS
  6
Continuous
 62
     7
100
AcDbLine
 10
-1000.0
 20
-1076.500000000026
 30
0.0
 11
-989.9494030727465
 21
-1038.99066162112
 31
0.0
  0
TEXT
  5
AA
330
4C4
100
AcDbEntity
  8
DIMNSIONS
 62
     7
100
AcDbText
 10
-1014.908333333333
 20
-956.1875000000084
 30
0.0
 40
40.72102864583334
  1
320
 50
90.0
 41
0.7
 11
-1055.629361979166
 21
-956.1875000000084
 31
0.0
100
AcDbText
 73
     3
  0
LINE
  5
AB
330
4C4
100
AcDbEntity
  8
DIMNSIONS
  6
Continuous
 62
     7
100
AcDbLine
 10
-873.5000000000411
 20
-593.9999999999998
 30
0.0
 11
-940.0
 21
-593.9999999999998
 31
0.0
  0
LINE
  5
AC
330
4C4
100
AcDbEntity
  8
DIMNSIONS
  6
Continuous
 62
     7
100
AcDbLine
 10
-884.1901042417132
 20
-674.9999999999999
 30
0.0
 11
-940.0
 21
-674.9999999999999
 31
0.0
  0
LINE
  5
AD
330
4C4
100
AcDbEntity
  8
DIMNSIONS
  6
Continuous
 62
     7
100
AcDbLine
 10
-925.0
 20
-593.9999999999998
 30
0.0
 11
-925.0
 21
-469.1666666666826
 31
0.0
  0
LINE
  5
AE
330
4C4
100
AcDbEntity
  8
DIMNSIONS
  6
Continuous
 62
     7
100
AcDbLine
 10
-925.0
 20
-593.9999999999998
 30
0.0
 11
-925.0
 21
-674.9999999999999
 31
0.0
  0
LINE
  5
AF
330
4C4
100
AcDbEntity
  8
DIMNSIONS
  6
Continuous
 62
     7
100
AcDbLine
 10
-925.0
 20
-593.9999999999998
 30
0.0
 11
-914.9494030727465
 21
-631.5093383789061
 31
0.0
  0
LINE
  5
B0
330
4C4
100
AcDbEntity
  8
DIMNSIONS
  6
Continuous
 62
     7
100
AcDbLine
 10
-925.0
 20
-593.9999999999998
 30
0.0
 11
-935.0505969272536
 21
-631.5093383789061
 31
0.0
  0
LINE
  5
B1
330
4C4
100
AcDbEntity
  8
DIMNSIONS
  6
Continuous
 62
     7
100
AcDbLine
 10
-925.0
 20
-674.9999999999999
 30
0.0
 11
-935.0505969272536
 21
-637.4906616210936
 31
0.0
  0
LINE
  5
B2
330
4C4
100
AcDbEntity
  8
DIMNSIONS
  6
Continuous
 62
     7
100
AcDbLine
 10
-925.0
 20
-674.9999999999999
 30
0.0
 11
-914.9494030727465
 21
-637.4906616210936
 31
0.0
  0
TEXT
  5
B3
330
4C4
100
AcDbEntity
  8
DIMNSIONS
 62
     7
100
AcDbText
 10
-939.9083333333331
 20
-575.000000000016
 30
0.0
 40
40.72102864583334
  1
81.0
 50
90.0
 41
0.7
 11
-980.6293619791665
 21
-575.000000000016
 31
0.0
100
AcDbText
 73
     3
  0
LINE
  5
B4
330
4C4
100
AcDbEntity
  8
DIMNSIONS
  6
Continuous
 62
     7
100
AcDbLine
 10
-699.9999999999991
 20
-1130.0
 30
0.0
 11
-699.9999999999991
 21
-1166.246890528038
 31
0.0
  0
LINE
  5
B5
330
4C4
100
AcDbEntity
  8
DIMNSIONS
  6
Continuous
 62
     7
100
AcDbLine
 10
-500.8141571295781
 20
-785.0
 30
0.0
 11
-469.4234291241037
 21
-766.876554735981
 31
0.0
  0
ARC
  5
B6
330
4C4
100
AcDbEntity
  8
DIMNSIONS
  6
Continuous
 62
     7
100
AcDbCircle
 10
-699.9999999999991
 20
-900.0
 30
0.0
 40
251.246890528038
100
AcDbArc
 50
270.0
 51
30.00000000000003
  0
LINE
  5
B7
330
4C4
100
AcDbEntity
  8
DIMNSIONS
  6
Continuous
 62
     7
100
AcDbLine
 10
-482.4138101808702
 20
-774.376554735981
 30
0.0
 11
-454.9550687292176
 21
-801.8352961876336
 31
0.0
  0
LINE
  5
B8
330
4C4
100
AcDbEntity
  8
DIMNSIONS
  6
Continuous
 62
     7
100
AcDbLine
 10
-482.4138101808702
 20
-774.376554735981
 30
0.0
 11
-472.3632132536167
 21
-811.8858931148873
 31
0.0
  0
LINE
  5
B9
330
4C4
100
AcDbEntity
  8
DIMNSIONS
  6
Continuous
 62
     7
100
AcDbLine
 10
-699.9999999999991
 20
-1151.246890528038
 30
0.0
 11
-662.4906616210927
 21
-1141.196293600784
 31
0.0
  0
LINE
  5
BA
330
4C4
100
AcDbEntity
  8
DIMNSIONS
  6
Continuous
 62
     7
100
AcDbLine
 10
-699.9999999999991
 20
-1151.246890528038
 30
0.0
 11
-662.4906616210927
 21
-1161.297487455291
 31
0.0
  0
TEXT
  5
BB
330
4C4
100
AcDbEntity
  8
DIMNSIONS
 62
     7
100
AcDbText
 10
-486.7038067193912
 20
-1022.20082334015
 30
0.0
 40
40.72102864583334
  1
120°
 50
75.8004706940337
 41
0.7
 11
-526.1807006443379
 21
-1012.211978561434
 31
0.0
100
AcDbText
 73
     3
  0
ARC
  5
BC
330
4C4
100
AcDbEntity
  8
DATA
  6
Continuous
 62
     7
100
AcDbCircle
 10
-700.0000000000255
 20
-49.99999999998578
 30
0.0
 40
120.000000000008
100
AcDbArc
 50
95.30840878331767
 51
204.6915912166807
  0
ARC
  5
BD
330
4C4
100
AcDbEntity
  8
DATA
  6
Continuous
 62
     7
100
AcDbCircle
 10
-700.0000000000255
 20
-49.99999999998578
 30
0.0
 40
120.000000000008
100
AcDbArc
 50
215.3084087833363
 51
324.6915912166877
  0
ARC
  5
BE
330
4C4
100
AcDbEntity
  8
DATA
  6
Continuous
 62
     7
100
AcDbCircle
 10
-700.0000000000255
 20
-49.99999999998578
 30
0.0
 40
120.0000000000081
100
AcDbArc
 50
335.3084087833301
 51
84.69159121667219
  0
ARC
  5
BF
330
4C4
100
AcDbEntity
  8
DATA
  6
Continuous
 62
     7
100
AcDbCircle
 10
-700.000000000008
 20
-49.99999999998529
 30
0.0
 40
143.5000000000103
100
AcDbArc
 50
98.70153427942859
 51
201.2984657205791
  0
ARC
  5
C0
330
4C4
100
AcDbEntity
  8
DATA
  6
Continuous
 62
     7
100
AcDbCircle
 10
-700.000000000008
 20
-49.99999999998529
 30
0.0
 40
143.5000000000102
100
AcDbArc
 50
218.7015342794285
 51
321.2984657205789
  0
ARC
  5
C1
330
4C4
100
AcDbEntity
  8
DATA
  6
Continuous
 62
     7
100
AcDbCircle
 10
-700.000000000008
 20
-49.99999999998529
 30
0.0
 40
143.5000000000104
100
AcDbArc
 50
338.7015342794286
 51
81.29846572057902
  0
TEXT
  5
C2
330
4C4
100
AcDbEntity
  8
DATA
 62
     7
100
AcDbText
 10
749.9999999999996
 20
-1733.591239999999
 30
0.0
 40
36.64892578125
  1
Control 85M
 41
0.7
 11
749.9999999999996
 21
-1696.942314218749
 31
0.0
100
AcDbText
 73
     3
  0
LINE
  5
C3
330
4C4
100
AcDbEntity
  8
DATA
  6
Continuous
 62
     7
100
AcDbLine
 10
500.0
 20
-899.9999999999996
 30
0.0
 11
1100.0
 21
-899.9999999999996
 31
0.0
  0
TEXT
  5
C4
330
4C4
100
AcDbEntity
  8
DATA
 62
     7
100
AcDbText
 10
-1312.5
 20
-1782.410423333334
 30
0.0
 40
28.50472005208334
  1
※仕様及び外観は予告なく変更されることがあります。
 41
0.7
 11
-1312.5
 21
-1753.90570328125
 31
0.0
100
AcDbText
 73
     3
  0
TEXT
  5
C5
330
4C4
100
AcDbEntity
  8
DATA
 62
     7
100
AcDbText
 10
-1312.5
 20
-1819.45209
 30
0.0
 40
28.50472005208334
  1
　また、同一商品でも若干の個体差があることがあります。ご了承ください。
 41
0.7
 11
-1312.5
 21
-1790.947369947917
 31
0.0
100
AcDbText
 73
     3
  0
LINE
  5
C6
330
4C4
100
AcDbEntity
  8
DATA
  6
Continuous
 62
     7
100
AcDbLine
 10
-545.8098957583236
 20
-658.4999999999999
 30
0.0
 11
-545.8098957583236
 21
-674.9999999999999
 31
0.0
  0
LINE
  5
C7
330
4C4
100
AcDbEntity
  8
DATA
  6
Continuous
 62
     7
100
AcDbLine
 10
-843.5000000000309
 20
-593.9999999999998
 30
0.0
 11
-843.5000000000309
 21
-658.4999999999999
 31
0.0
  0
LINE
  5
C8
330
4C4
100
AcDbEntity
  8
DATA
  6
Continuous
 62
     7
100
AcDbLine
 10
-545.8098957583236
 20
-674.9999999999999
 30
0.0
 11
-854.1901042417132
 21
-674.9999999999999
 31
0.0
  0
LINE
  5
C9
330
4C4
100
AcDbEntity
  8
DATA
  6
Continuous
 62
     7
100
AcDbLine
 10
-556.9043057898968
 20
-593.9999999999998
 30
0.0
 11
-843.5000000000309
 21
-593.9999999999998
 31
0.0
  0
LINE
  5
CA
330
4C4
100
AcDbEntity
  8
DATA
  6
Continuous
 62
     7
100
AcDbLine
 10
-545.8098957583236
 20
-658.4999999999999
 30
0.0
 11
-582.6543057898937
 21
-658.4999999999999
 31
0.0
  0
LINE
  5
CB
330
4C4
100
AcDbEntity
  8
DATA
  6
Continuous
 62
     7
100
AcDbLine
 10
-582.6543057898937
 20
-593.9999999999998
 30
0.0
 11
-582.6543057898937
 21
-674.9999999999999
 31
0.0
  0
LINE
  5
CC
330
4C4
100
AcDbEntity
  8
DATA
  6
Continuous
 62
     7
100
AcDbLine
 10
-589.1467074783384
 20
-593.9999999999998
 30
0.0
 11
-589.1467074783384
 21
-674.9999999999999
 31
0.0
  0
LINE
  5
CD
330
4C4
100
AcDbEntity
  8
DATA
  6
Continuous
 62
     7
100
AcDbLine
 10
-556.9043057898968
 20
-593.9999999999998
 30
0.0
 11
-556.9043057898968
 21
-658.4999999999999
 31
0.0
  0
LINE
  5
CE
330
4C4
100
AcDbEntity
  8
DATA
  6
Continuous
 62
     7
100
AcDbLine
 10
-854.1901042417132
 20
-658.4999999999999
 30
0.0
 11
-854.1901042417132
 21
-674.9999999999999
 31
0.0
  0
LINE
  5
CF
330
4C4
100
AcDbEntity
  8
DATA
  6
Continuous
 62
     7
100
AcDbLine
 10
-854.1901042417132
 20
-658.4999999999999
 30
0.0
 11
-817.3456942101427
 21
-658.4999999999999
 31
0.0
  0
LINE
  5
D0
330
4C4
100
AcDbEntity
  8
DATA
  6
Continuous
 62
     7
100
AcDbLine
 10
-817.3456942101427
 20
-593.9999999999998
 30
0.0
 11
-817.3456942101427
 21
-674.9999999999999
 31
0.0
  0
LINE
  5
D1
330
4C4
100
AcDbEntity
  8
DATA
  6
Continuous
 62
     7
100
AcDbLine
 10
-810.8532925216984
 20
-593.9999999999998
 30
0.0
 11
-810.8532925216984
 21
-674.9999999999999
 31
0.0
  0
LINE
  5
D2
330
4C4
100
AcDbEntity
  8
DATA
  6
Continuous
 62
     7
100
AcDbLine
 10
-843.0956942101394
 20
-593.9999999999998
 30
0.0
 11
-843.0956942101394
 21
-658.4999999999999
 31
0.0
  0
ARC
  5
D3
330
4C4
100
AcDbEntity
  8
DATA
  6
Continuous
 62
     7
100
AcDbCircle
 10
-700.0000000000182
 20
-674.9999999999999
 30
0.0
 40
9.0
100
AcDbArc
 50
0.0
 51
180.0
  0
ARC
  5
D4
330
4C4
100
AcDbEntity
  8
DATA
  6
Continuous
 62
     7
100
AcDbCircle
 10
-700.0000000000182
 20
-675.0
 30
0.0
 40
11.0
100
AcDbArc
 50
0.0000000000011937
 51
179.9999999999988
  0
LINE
  5
D5
330
4C4
100
AcDbEntity
  8
DATA
  6
Continuous
 62
     7
100
AcDbLine
 10
-838.3000000000286
 20
-450.9999999999999
 30
0.0
 11
-843.500000000041
 21
-593.9999999999998
 31
0.0
  0
LINE
  5
D6
330
4C4
100
AcDbEntity
  8
DATA
  6
Continuous
 62
     7
100
AcDbLine
 10
-561.7000000000281
 20
-450.9999999999999
 30
0.0
 11
-556.9043057899071
 21
-593.9999999999998
 31
0.0
  0
ARC
  5
D7
330
4C4
100
AcDbEntity
  8
DATA
  6
Continuous
 62
     7
100
AcDbCircle
 10
-700.0000000000161
 20
-489.9999999999999
 30
0.0
 40
242.0000000000001
100
AcDbArc
 50
60.25511870305805
 51
119.7448812969419
  0
LINE
  5
D8
330
4C4
100
AcDbEntity
  8
DATA
  6
Continuous
 62
     7
100
AcDbLine
 10
-561.7000000000281
 20
-450.9999999999999
 30
0.0
 11
-838.3000000000286
 21
-450.9999999999999
 31
0.0
  0
LINE
  5
D9
330
4C4
100
AcDbEntity
  8
DATA
  6
Continuous
 62
     7
100
AcDbLine
 10
-838.3000000000286
 20
-450.9999999999999
 30
0.0
 11
-820.0656230823689
 21
-279.8851596058802
 31
0.0
  0
LINE
  5
DA
330
4C4
100
AcDbEntity
  8
DATA
  6
Continuous
 62
     7
100
AcDbLine
 10
-561.7000000000281
 20
-450.9999999999999
 30
0.0
 11
-579.9343769176632
 21
-279.8851596058802
 31
0.0
  0
LINE
  5
DB
330
4C4
100
AcDbEntity
  8
DATA
  6
Continuous
 62
     7
100
AcDbLine
 10
-674.2500000000197
 20
-470.9999999999999
 30
0.0
 11
-674.2500000000197
 21
-450.9999999999999
 31
0.0
  0
LINE
  5
DC
330
4C4
100
AcDbEntity
  8
DATA
  6
Continuous
 62
     7
100
AcDbLine
 10
-725.7500000000357
 20
-470.9999999999999
 30
0.0
 11
-725.7500000000357
 21
-450.9999999999999
 31
0.0
  0
LINE
  5
DD
330
4C4
100
AcDbEntity
  8
DATA
  6
Continuous
 62
     7
100
AcDbLine
 10
-601.6802609438321
 20
-450.9999999999999
 30
0.0
 11
-601.6802609438321
 21
-529.0110767981485
 31
0.0
  0
LINE
  5
DE
330
4C4
100
AcDbEntity
  8
DATA
  6
Continuous
 62
     7
100
AcDbLine
 10
-832.3000000000288
 20
-563.9999999999998
 30
0.0
 11
-567.7000000000281
 21
-563.9999999999998
 31
0.0
  0
ARC
  5
DF
330
4C4
100
AcDbEntity
  8
DATA
  6
Continuous
 62
     7
100
AcDbCircle
 10
-700.000000000028
 20
-499.2278673872873
 30
0.0
 40
38.20831057812827
100
AcDbArc
 50
47.6283317818217
 51
132.3716682181776
  0
LINE
  5
E0
330
4C4
100
AcDbEntity
  8
DATA
  6
Continuous
 62
     7
100
AcDbLine
 10
-567.7000000000281
 20
-450.9999999999999
 30
0.0
 11
-579.9343769176632
 21
-279.8851596058802
 31
0.0
  0
LINE
  5
E1
330
4C4
100
AcDbEntity
  8
DATA
  6
Continuous
 62
     7
100
AcDbLine
 10
-567.7000000000281
 20
-450.9999999999999
 30
0.0
 11
-567.7000000000281
 21
-593.9999999999998
 31
0.0
  0
LINE
  5
E2
330
4C4
100
AcDbEntity
  8
DATA
  6
Continuous
 62
     7
100
AcDbLine
 10
-798.3197390562247
 20
-450.9999999999999
 30
0.0
 11
-798.3197390562247
 21
-529.0110767981483
 31
0.0
  0
LINE
  5
E3
330
4C4
100
AcDbEntity
  8
DATA
  6
Continuous
 62
     7
100
AcDbLine
 10
-832.3000000000288
 20
-450.9999999999999
 30
0.0
 11
-820.0656230823689
 21
-279.8851596058802
 31
0.0
  0
LINE
  5
E4
330
4C4
100
AcDbEntity
  8
DATA
  6
Continuous
 62
     7
100
AcDbLine
 10
-832.3000000000288
 20
-450.9999999999999
 30
0.0
 11
-832.3000000000288
 21
-593.9999999999998
 31
0.0
  0
LINE
  5
E5
330
4C4
100
AcDbEntity
  8
DATA
  6
Continuous
 62
     7
100
AcDbLine
 10
-601.6802609438321
 20
-529.0110767981485
 30
0.0
 11
-567.7000000000281
 21
-563.9999999999998
 31
0.0
  0
LINE
  5
E6
330
4C4
100
AcDbEntity
  8
DATA
  6
Continuous
 62
     7
100
AcDbLine
 10
-798.3197390562247
 20
-529.0110767981483
 30
0.0
 11
-832.3000000000288
 21
-563.9999999999998
 31
0.0
  0
LINE
  5
E7
330
4C4
100
AcDbEntity
  8
DATA
  6
Continuous
 62
     7
100
AcDbLine
 10
-843.0956942101394
 20
-593.9999999999998
 30
0.0
 11
-556.9043057898968
 21
-593.9999999999998
 31
0.0
  0
LINE
  5
E8
330
4C4
100
AcDbEntity
  8
DATA
  6
Continuous
 62
     7
100
AcDbLine
 10
-712.500000000028
 20
-450.9999999999999
 30
0.0
 11
-712.500000000028
 21
-463.1221199606697
 31
0.0
  0
LINE
  5
E9
330
4C4
100
AcDbEntity
  8
DATA
  6
Continuous
 62
     7
100
AcDbLine
 10
-687.500000000028
 20
-450.9999999999999
 30
0.0
 11
-687.500000000028
 21
-463.1221199606697
 31
0.0
  0
ARC
  5
EA
330
4C4
100
AcDbEntity
  8
DATA
  6
Continuous
 62
     7
100
AcDbCircle
 10
118.612786056721
 20
-1601.663602575482
 30
0.0
 40
1411.15154985795
100
AcDbArc
 50
126.7518292578345
 51
130.524721540146
  0
ARC
  5
EB
330
4C4
100
AcDbEntity
  8
DATA
  6
Continuous
 62
     7
100
AcDbCircle
 10
-1518.612786056778
 20
-1601.663602575482
 30
0.0
 40
1411.151549857951
100
AcDbArc
 50
49.47527845985407
 51
53.24817074216547
  0
LINE
  5
EC
330
4C4
100
AcDbEntity
  8
DATA
  6
Continuous
 62
     7
100
AcDbLine
 10
-718.0000000000283
 20
-557.4999999999999
 30
0.0
 11
-682.0000000000284
 21
-557.4999999999999
 31
0.0
  0
LINE
  5
ED
330
4C4
100
AcDbEntity
  8
DATA
  6
Continuous
 62
     7
100
AcDbLine
 10
-719.5000000000284
 20
-527.4999999999998
 30
0.0
 11
-680.5000000000283
 21
-527.4999999999998
 31
0.0
  0
LINE
  5
EE
330
4C4
100
AcDbEntity
  8
DATA
  6
Continuous
 62
     7
100
AcDbLine
 10
-718.0000000000283
 20
-557.4999999999999
 30
0.0
 11
-718.0000000000283
 21
-527.4999999999998
 31
0.0
  0
LINE
  5
EF
330
4C4
100
AcDbEntity
  8
DATA
  6
Continuous
 62
     7
100
AcDbLine
 10
-682.0000000000284
 20
-557.4999999999999
 30
0.0
 11
-682.0000000000284
 21
-527.4999999999998
 31
0.0
  0
LINE
  5
F0
330
4C4
100
AcDbEntity
  8
DATA
  6
Continuous
 62
     7
100
AcDbLine
 10
-680.5000000000283
 20
-527.4999999999998
 30
0.0
 11
-680.5000000000283
 21
-561.4999999999999
 31
0.0
  0
LINE
  5
F1
330
4C4
100
AcDbEntity
  8
DATA
  6
Continuous
 62
     7
100
AcDbLine
 10
-719.5000000000284
 20
-561.4999999999999
 30
0.0
 11
-719.5000000000284
 21
-527.4999999999998
 31
0.0
  0
ARC
  5
F2
330
4C4
100
AcDbEntity
  8
DATA
  6
Continuous
 62
     7
100
AcDbCircle
 10
-700.0000000000284
 20
-655.5624999999999
 30
0.0
 40
96.06250000000001
100
AcDbArc
 50
78.28797282914209
 51
101.7120271708578
  0
TEXT
  5
F3
330
4C4
100
AcDbEntity
  8
DATA
 62
     7
100
AcDbText
 10
-712.7000000000286
 20
-548.5959999999998
 30
0.0
 40
13.03072916666666
  1
JBL
 41
0.7
 11
-712.7000000000286
 21
-535.5652708333332
 31
0.0
100
AcDbText
 73
     3
  0
LWPOLYLINE
  5
F4
330
4C4
100
AcDbEntity
  8
DATA
  6
Continuous
 62
     7
100
AcDbPolyline
 90
      770
 70
   129
 43
0.0
 10
-789.8747234871096
 20
-540.7862518804003
 10
-789.8298624115304
 20
-540.7875259395776
 10
-789.7852182824617
 20
-540.7891906968573
 10
-789.7407910999033
 20
-540.7912461522392
 10
-789.6965808638554
 20
-540.7936923057233
 10
-789.6525875743182
 20
-540.79652915731
 10
-789.6088112312915
 20
-540.799756706999
 10
-789.5652518347754
 20
-540.8033749547902
 10
-789.5219093847696
 20
-540.8073839006838
 10
-789.4787838812744
 20
-540.8117835446797
 10
-789.4358753242898
 20
-540.8165738867779
 10
-789.3931837138159
 20
-540.8217549269786
 10
-789.3507090498519
 20
-540.8273266652815
 10
-789.3084513323989
 20
-540.8332891016868
 10
-789.2664105614563
 20
-540.8396422361945
 10
-789.2245867370242
 20
-540.8463860688045
 10
-789.1829798591026
 20
-540.8535205995169
 10
-789.1415899276915
 20
-540.8610458283314
 10
-789.1004169427908
 20
-540.8689617552485
 10
-789.0594609044009
 20
-540.877268380268
 10
-789.0187218125215
 20
-540.8859657033896
 10
-788.9781996671524
 20
-540.8950537246137
 10
-788.9378944682939
 20
-540.90453244394
 10
-788.8978062159459
 20
-540.9144018613687
 10
-788.8579349101086
 20
-540.9246619768997
 10
-788.8182805507816
 20
-540.9353127905331
 10
-788.778843137965
 20
-540.9463543022688
 10
-788.7396226716595
 20
-540.9577865121069
 10
-788.7006191518639
 20
-540.9696094200474
 10
-788.6618325785789
 20
-540.9818230260902
 10
-788.6232629518048
 20
-540.9944273302353
 10
-788.5849102715409
 20
-541.0074223324828
 10
-788.5467745377874
 20
-541.0208080328325
 10
-788.5088557505447
 20
-541.0345844312847
 10
-788.4711539098124
 20
-541.0487515278391
 10
-788.4336690155907
 20
-541.0633093224959
 10
-788.3964010678795
 20
-541.078257815255
 10
-788.3593500666787
 20
-541.0935970061166
 10
-788.3225160119885
 20
-541.1093268950804
 10
-788.2858989038087
 20
-541.1254474821466
 10
-788.2494987421396
 20
-541.1419587673152
 10
-788.2133155269812
 20
-541.1588607505859
 10
-788.1773492583329
 20
-541.1761534319591
 10
-788.1415999361953
 20
-541.1938368114348
 10
-788.1060675605681
 20
-541.2119108890125
 10
-788.0707521314515
 20
-541.2303756646926
 10
-788.0356536488457
 20
-541.2492311384753
 10
-788.00077211275
 20
-541.2684773103602
 10
-787.966107523165
 20
-541.2881141803475
 10
-787.9316598800908
 20
-541.3081417484371
 10
-787.8974291835268
 20
-541.3285600146292
 10
-787.863415433473
 20
-541.3493689789233
 10
-787.8296186299302
 20
-541.37056864132
 10
-787.7960387728977
 20
-541.3921590018189
 10
-787.762675862376
 20
-541.4141400604203
 10
-787.7295298983645
 20
-541.4365118171239
 10
-787.6966008808633
 20
-541.4592742719297
 10
-787.663888809873
 20
-541.4824274248381
 10
-787.631393685393
 20
-541.5059712758488
 10
-787.5991155074239
 20
-541.5299058249618
 10
-787.567054275965
 20
-541.5542310721771
 10
-787.5352099910167
 20
-541.5789470174948
 10
-787.5035826525788
 20
-541.6040536609147
 10
-787.4721722606515
 20
-541.6295510024371
 10
-787.4409788152348
 20
-541.6554390420619
 10
-787.4100673881502
 20
-541.6816631780472
 10
-787.3795030512199
 20
-541.7081688086516
 10
-787.3492858044435
 20
-541.7349559338751
 10
-787.3194156478215
 20
-541.7620245537176
 10
-787.2898925813533
 20
-541.7893746681792
 10
-787.260716605039
 20
-541.8170062772597
 10
-787.2318877188789
 20
-541.8449193809594
 10
-787.2034059228731
 20
-541.8731139792781
 10
-787.1752712170212
 20
-541.9015900722156
 10
-787.1474836013232
 20
-541.9303476597722
 10
-787.1200430757795
 20
-541.959386741948
 10
-787.0929496403897
 20
-541.9887073187428
 10
-787.0662032951543
 20
-542.0183093901568
 10
-787.0398040400726
 20
-542.0481929561894
 10
-787.0137518751453
 20
-542.0783580168414
 10
-786.9880468003715
 20
-542.1088045721123
 10
-786.9626888157523
 20
-542.1395326220022
 10
-786.9376779212871
 20
-542.1705421665112
 10
-786.913014116976
 20
-542.2018332056392
 10
-786.8886974028189
 20
-542.2334057393864
 10
-786.8647277788158
 20
-542.2652597677525
 10
-786.8411052449666
 20
-542.2973952907376
 10
-786.8178298012718
 20
-542.3298123083417
 10
-786.7949014477309
 20
-542.3625108205649
 10
-786.7723201843441
 20
-542.3954908274073
 10
-786.7500860111114
 20
-542.4287523288687
 10
-786.7281989280327
 20
-542.4622953249489
 10
-786.7066589351082
 20
-542.4961198156482
 10
-786.6854660323377
 20
-542.5302258009666
 10
-786.6646202197212
 20
-542.564613280904
 10
-786.6441214972589
 20
-542.5992822554604
 10
-786.6239698649507
 20
-542.634232724636
 10
-786.6041653227965
 20
-542.6694646884306
 10
-786.5847078707964
 20
-542.7049781468441
 10
-786.5655975089501
 20
-542.7407730998768
 10
-786.5468342372582
 20
-542.7768495475284
 10
-786.5284180557204
 20
-542.813207489799
 10
-786.5103489643366
 20
-542.8498469266888
 10
-786.4926269631066
 20
-542.8867678581976
 10
-786.4752520520308
 20
-542.9239702843252
 10
-786.4582242311093
 20
-542.961454205072
 10
-786.4415435003418
 20
-542.9992196204377
 10
-786.4252098597281
 20
-543.0372665304227
 10
-786.4092233092686
 20
-543.0755949350265
 10
-786.3935838489632
 20
-543.1142048342496
 10
-786.378291478812
 20
-543.1530962280915
 10
-786.3633461988147
 20
-543.1922691165527
 10
-786.3487480089716
 20
-543.2317234996327
 10
-786.3344969092825
 20
-543.2714593773319
 10
-786.3205928997473
 20
-543.3114767496499
 10
-786.3070359803665
 20
-543.3517756165871
 10
-786.2938261511396
 20
-543.3923559781431
 10
-786.2809634120668
 20
-543.4332178343185
 10
-786.268447763148
 20
-543.4743611851128
 10
-786.2562792043834
 20
-543.5157860305261
 10
-786.2444577357726
 20
-543.5574923705585
 10
-786.2329833573161
 20
-543.5994802052097
 10
-786.2218560690138
 20
-543.6417495344803
 10
-786.2110758708653
 20
-543.6843003583695
 10
-786.200642762871
 20
-543.7271326768779
 10
-786.1905567450308
 20
-543.7702464900057
 10
-786.1808178173445
 20
-543.8136417977521
 10
-786.1714259798125
 20
-543.8573186001177
 10
-786.1623812324344
 20
-543.9012768971023
 10
-786.1537021457692
 20
-543.9454243738365
 10
-786.1454072903748
 20
-543.9896687154505
 10
-786.1374966662515
 20
-544.0340099219444
 10
-786.1299702733995
 20
-544.0784479933181
 10
-786.1228281118187
 20
-544.1229829295718
 10
-786.1160701815089
 20
-544.1676147307052
 10
-786.1096964824702
 20
-544.2123433967185
 10
-786.1037070147028
 20
-544.2571689276119
 10
-786.0981017782063
 20
-544.302091323385
 10
-786.0928807729813
 20
-544.347110584038
 10
-786.0880439990272
 20
-544.3922267095711
 10
-786.0835914563442
 20
-544.4374396999839
 10
-786.0795231449325
 20
-544.4827495552765
 10
-786.075839064792
 20
-544.5281562754492
 10
-786.0725392159225
 20
-544.5736598605017
 10
-786.0696235983241
 20
-544.619260310434
 10
-786.0670922119967
 20
-544.6649576252461
 10
-786.0649450569408
 20
-544.7107518049383
 10
-786.0631821331558
 20
-544.7566428495104
 10
-786.061803440642
 20
-544.8026307589623
 10
-786.0608089793995
 20
-544.848715533294
 10
-786.060198749428
 20
-544.8948971725057
 10
-786.0599727507276
 20
-544.9411756765973
 10
-786.0601309832983
 20
-544.9875510455687
 10
-786.0606734471404
 20
-545.0340232794201
 10
-786.0616001422536
 20
-545.0805923781512
 10
-786.0629110686377
 20
-545.1272583417625
 10
-786.0646062262928
 20
-545.1740211702534
 10
-786.0666856152192
 20
-545.2208808636243
 10
-786.069149235417
 20
-545.2678374218751
 10
-786.0719970868856
 20
-545.3148908450057
 10
-786.0752291696257
 20
-545.3620411330162
 10
-786.0788454836367
 20
-545.4092882859066
 10
-786.0828460289191
 20
-545.456632303677
 10
-786.0872308054723
 20
-545.5040731863272
 10
-786.0919998132966
 20
-545.5516109338573
 10
-786.0971530523924
 20
-545.5992455462673
 10
-786.1026905227589
 20
-545.6469770235571
 10
-786.1086122243969
 20
-545.6948053657269
 10
-786.1149181573059
 20
-545.7427305727764
 10
-786.121608321486
 20
-545.7907526447059
 10
-786.1286827169375
 20
-545.8388715815154
 10
-786.1361413436598
 20
-545.8870873832046
 10
-786.1439842016534
 20
-545.9354000497738
 10
-786.1522112909181
 20
-545.9838095812228
 10
-786.1608226114541
 20
-546.0323159775517
 10
-786.1698181632609
 20
-546.0809192387607
 10
-786.1791979463389
 20
-546.1296193648492
 10
-786.1889619606882
 20
-546.1784163558177
 10
-786.1991102063085
 20
-546.2273102116665
 10
-786.2096426832004
 20
-546.2763009323947
 10
-786.2205593913629
 20
-546.3253885180029
 10
-786.2318603307966
 20
-546.3745729684911
 10
-786.2435455015019
 20
-546.423854283859
 10
-786.2556149034777
 20
-546.4732324641069
 10
-786.2680685367251
 20
-546.5227075092346
 10
-786.2809064012434
 20
-546.5722794192423
 10
-786.2941284970329
 20
-546.6219481941298
 10
-786.3077348240937
 20
-546.6717138338971
 10
-786.3217253824257
 20
-546.7215763385444
 10
-786.3361001720285
 20
-546.7715357080717
 10
-786.3508591929027
 20
-546.8215919424789
 10
-786.3660024450478
 20
-546.8717450417659
 10
-786.381529928464
 20
-546.9219950059328
 10
-786.397408736481
 20
-546.9722365426767
 10
-786.4136059624268
 20
-547.0223643596951
 10
-786.4301216063022
 20
-547.0723784569879
 10
-786.4469556681073
 20
-547.1222788345551
 10
-786.4641081478414
 20
-547.1720654923968
 10
-786.481579045505
 20
-547.2217384305127
 10
-786.4993683610978
 20
-547.2712976489031
 10
-786.5174760946205
 20
-547.3207431475678
 10
-786.5359022460725
 20
-547.370074926507
 10
-786.5546468154538
 20
-547.4192929857206
 10
-786.5737098027644
 20
-547.4683973252085
 10
-786.5930912080044
 20
-547.5173879449711
 10
-786.6127910311737
 20
-547.5662648450077
 10
-786.6328092722726
 20
-547.6150280253188
 10
-786.653145931301
 20
-547.6636774859043
 10
-786.6738010082583
 20
-547.7122132267643
 10
-786.6947745031455
 20
-547.7606352478987
 10
-786.7160664159619
 20
-547.8089435493073
 10
-786.7376767467079
 20
-547.8571381309905
 10
-786.7596054953829
 20
-547.905218992948
 10
-786.7818526619876
 20
-547.95318613518
 10
-786.8044182465219
 20
-548.0010395576861
 10
-786.8273022489852
 20
-548.048779260467
 10
-786.8505046693781
 20
-548.0964052435219
 10
-786.8740255077003
 20
-548.1439175068514
 10
-786.897864763952
 20
-548.1913160504553
 10
-786.9220224381331
 20
-548.2386008743337
 10
-786.9464985302434
 20
-548.2857719784862
 10
-786.9712930402835
 20
-548.3328293629132
 10
-786.9964059682526
 20
-548.3797730276148
 10
-787.0218373141512
 20
-548.4266029725907
 10
-787.0475870779793
 20
-548.4733191978409
 10
-787.0736552597366
 20
-548.5199217033655
 10
-787.1000418594235
 20
-548.5664104891646
 10
-787.1267468770396
 20
-548.612785555238
 10
-787.1537703125856
 20
-548.6590469015859
 10
-787.1811121660605
 20
-548.7051945282082
 10
-787.2087724374651
 20
-548.7512284351048
 10
-787.2367511267988
 20
-548.7971486222759
 10
-787.2650482340621
 20
-548.8429550897213
 10
-787.2936637592547
 20
-548.8886478374411
 10
-787.3225977023767
 20
-548.9342268654352
 10
-787.3518500634284
 20
-548.9796921737037
 10
-787.381420842409
 20
-549.0250437622468
 10
-787.4113100393193
 20
-549.0702816310641
 10
-787.4415176541589
 20
-549.115405780156
 10
-787.4720436869282
 20
-549.1604162095223
 10
-787.5028881376265
 20
-549.2053129191628
 10
-787.5340510062544
 20
-549.2500959090778
 10
-787.5655322928119
 20
-549.2947651792672
 10
-787.5973319972984
 20
-549.3393207297311
 10
-787.6294501197145
 20
-549.383762560469
 10
-787.6618866600604
 20
-549.4280906714816
 10
-787.6946416183348
 20
-549.4723050627685
 10
-787.727714994539
 20
-549.5164057343299
 10
-787.7611067886728
 20
-549.5603926861656
 10
-787.794817000736
 20
-549.6042659182758
 10
-787.8288456307283
 20
-549.6480254306602
 10
-787.8631926786502
 20
-549.6916712233192
 10
-787.8978581445014
 20
-549.7352032962525
 10
-787.9328420282822
 20
-549.7786216494603
 10
-787.9681443299923
 20
-549.8219262829422
 10
-788.0037650496318
 20
-549.8651171966988
 10
-788.0397041872006
 20
-549.9081943907297
 10
-788.0758861761145
 20
-549.9510678082865
 10
-788.112235449789
 20
-549.9936473926208
 10
-788.1487520082242
 20
-550.0359331437329
 10
-788.1854358514198
 20
-550.0779250616224
 10
-788.2222869793763
 20
-550.1196231462895
 10
-788.2593053920932
 20
-550.161027397734
 10
-788.2964910895709
 20
-550.2021378159562
 10
-788.333844071809
 20
-550.2429544009559
 10
-788.3713643388079
 20
-550.283477152733
 10
-788.4090518905675
 20
-550.3237060712879
 10
-788.4469067270876
 20
-550.3636411566202
 10
-788.4849288483683
 20
-550.4032824087301
 10
-788.5231182544098
 20
-550.4426298276174
 10
-788.5614749452119
 20
-550.4816834132824
 10
-788.5999989207744
 20
-550.5204431657249
 10
-788.6386901810976
 20
-550.5589090849449
 10
-788.6775487261815
 20
-550.5970811709426
 10
-788.7165745560261
 20
-550.6349594237176
 10
-788.7557676706308
 20
-550.6725438432702
 10
-788.7951280699968
 20
-550.7098344296005
 10
-788.8346557541232
 20
-550.7468311827083
 10
-788.8743507230101
 20
-550.7835341025935
 10
-788.9142129766577
 20
-550.8199431892563
 10
-788.954242515066
 20
-550.8560584426968
 10
-788.9944393382346
 20
-550.8918798629148
 10
-789.0348034461641
 20
-550.9274074499103
 10
-789.0753348388543
 20
-550.9626412036833
 10
-789.1160335163049
 20
-550.9975811242338
 10
-789.1568994785164
 20
-551.0322272115619
 10
-789.1979327254881
 20
-551.0665794656676
 10
-789.2391332572207
 20
-551.1006378865508
 10
-789.2805010737138
 20
-551.1344024742117
 10
-789.3220361749678
 20
-551.1678732286498
 10
-789.3637385609822
 20
-551.2010501498657
 10
-789.405608231757
 20
-551.2339332378591
 10
-789.4476451872929
 20
-551.2665224926299
 10
-789.489849427589
 20
-551.2988179141784
 10
-789.5322209526462
 20
-551.3308195025043
 10
-789.5747597624638
 20
-551.362527257608
 10
-789.6174658570418
 20
-551.393941179489
 10
-789.6603392363807
 20
-551.4250612681477
 10
-789.7033799004802
 20
-551.4558875235839
 10
-789.74658784934
 20
-551.4864199457977
 10
-789.7899630829608
 20
-551.5166585347889
 10
-789.8335056013421
 20
-551.5466032905577
 10
-789.8772154044841
 20
-551.5762542131041
 10
-789.9210924923864
 20
-551.6056113024281
 10
-789.9651368650498
 20
-551.6346745585294
 10
-790.0093485224735
 20
-551.6634439814084
 10
-790.0537274646579
 20
-551.691919571065
 10
-790.0982736916029
 20
-551.7201013274991
 10
-790.1429872033085
 20
-551.7479892507107
 10
-790.1878679997748
 20
-551.7755833406998
 10
-790.2329160810019
 20
-551.8028835974665
 10
-790.2781314469893
 20
-551.8298900210107
 10
-790.3235140977375
 20
-551.8566026113326
 10
-790.3690640332463
 20
-551.8830213684319
 10
-790.4147812535158
 20
-551.9091462923088
 10
-790.4606657585457
 20
-551.9349773829632
 10
-790.5067175483363
 20
-551.9605146403953
 10
-790.5529366228876
 20
-551.9857580646048
 10
-790.5993229821995
 20
-552.010707655592
 10
-790.6458766262719
 20
-552.0353634133565
 10
-790.6925975551053
 20
-552.0597253378987
 10
-790.7393877902062
 20
-552.0837427386571
 10
-790.7861493530827
 20
-552.1073649250714
 10
-790.8328822437344
 20
-552.1305918971406
 10
-790.8795864621615
 20
-552.1534236548652
 10
-790.926262008364
 20
-552.1758601982453
 10
-790.9729088823418
 20
-552.1979015272807
 10
-791.0195270840946
 20
-552.2195476419715
 10
-791.0661166136232
 20
-552.2407985423176
 10
-791.112677470927
 20
-552.261654228319
 10
-791.1592096560061
 20
-552.2821146999761
 10
-791.2057131688604
 20
-552.3021799572882
 10
-791.2521880094901
 20
-552.3218500002558
 10
-791.2986341778953
 20
-552.3411248288788
 10
-791.3450516740756
 20
-552.3600044431571
 10
-791.3914404980313
 20
-552.3784888430906
 10
-791.4378006497626
 20
-552.3965780286796
 10
-791.4841321292688
 20
-552.414271999924
 10
-791.5304349365507
 20
-552.4315707568238
 10
-791.5767090716076
 20
-552.4484742993788
 10
-791.6229545344401
 20
-552.4649826275893
 10
-791.6691713250476
 20
-552.4810957414551
 10
-791.7153594434307
 20
-552.4968136409763
 10
-791.7615188895889
 20
-552.5121363261527
 10
-791.8076496635229
 20
-552.5270637969847
 10
-791.8537517652318
 20
-552.5415960534719
 10
-791.8998251947162
 20
-552.5557330956145
 10
-791.9458699519759
 20
-552.5694749234125
 10
-791.991886037011
 20
-552.5828215368658
 10
-792.0378734498212
 20
-552.5957729359745
 10
-792.0838321904069
 20
-552.6083291207385
 10
-792.129762258768
 20
-552.6204900911579
 10
-792.1756636549043
 20
-552.6322558472327
 10
-792.221536378816
 20
-552.6436263889627
 10
-792.2673804305029
 20
-552.6546017163481
 10
-792.3131958099654
 20
-552.6651818293892
 10
-792.358982517203
 20
-552.6753667280853
 10
-792.4047405522161
 20
-552.6851564124369
 10
-792.4504699150044
 20
-552.6945508824438
 10
-792.4961706055679
 20
-552.703550138106
 10
-792.5418426239072
 20
-552.7121541794238
 10
-792.5874859700212
 20
-552.7203630063968
 10
-792.6331006439109
 20
-552.7281766190251
 10
-792.678686645576
 20
-552.7355950173087
 10
-792.7242439750163
 20
-552.7426182012479
 10
-792.7697726322319
 20
-552.7492461708423
 10
-792.8152726172229
 20
-552.755478926092
 10
-792.8607439299891
 20
-552.7613164669973
 10
-792.9061865705308
 20
-552.7667587935578
 10
-792.9516005388478
 20
-552.7718059057737
 10
-792.9969858349402
 20
-552.7764578036449
 10
-793.0423424588076
 20
-552.7807144871714
 10
-793.0876704104507
 20
-552.7845759563535
 10
-793.1329696898688
 20
-552.7880422111908
 10
-793.1782402970625
 20
-552.7911132516837
 10
-793.2234822320315
 20
-552.7937890778316
 10
-793.2686954947759
 20
-552.796069689635
 10
-793.3138800852955
 20
-552.7979550870936
 10
-793.3590360035905
 20
-552.7994452702078
 10
-793.4041632496606
 20
-552.8005402389774
 10
-793.4492618235062
 20
-552.8012399934022
 10
-793.4943317251269
 20
-552.8015445334825
 10
-793.5393729545235
 20
-552.8014538592178
 10
-793.5843855116949
 20
-552.8009679706087
 10
-793.6293693966419
 20
-552.8000868676551
 10
-793.6742304722212
 20
-552.798812808478
 10
-793.7188746012902
 20
-552.7971480511985
 10
-793.7633017838484
 20
-552.7950925958166
 10
-793.8075120198964
 20
-552.7926464423323
 10
-793.8515053094333
 20
-552.7898095907458
 10
-793.8952816524602
 20
-552.7865820410568
 10
-793.9388410489764
 20
-552.7829637932655
 10
-793.982183498982
 20
-552.778954847372
 10
-794.025309002477
 20
-552.774555203376
 10
-794.0682175594621
 20
-552.7697648612777
 10
-794.110909169936
 20
-552.7645838210771
 10
-794.1533838338997
 20
-552.7590120827742
 10
-794.1956415513526
 20
-552.7530496463689
 10
-794.2376823222954
 20
-552.7466965118613
 10
-794.2795061467275
 20
-552.7399526792512
 10
-794.3211130246492
 20
-552.7328181485388
 10
-794.3625029560603
 20
-552.7252929197242
 10
-794.4036759409607
 20
-552.7173769928071
 10
-794.4446319793509
 20
-552.709070367788
 10
-794.4853710712303
 20
-552.7003730446661
 10
-794.5258932165994
 20
-552.691285023442
 10
-794.5661984154577
 20
-552.6818063041157
 10
-794.6062866678057
 20
-552.671936886687
 10
-794.6461579736432
 20
-552.6616767711559
 10
-794.6858123329698
 20
-552.6510259575225
 10
-794.7252497457863
 20
-552.6399844457868
 10
-794.7644702120924
 20
-552.6285522359487
 10
-794.8034737318878
 20
-552.6167293280082
 10
-794.8422603051725
 20
-552.6045157219656
 10
-794.880829931947
 20
-552.5919114178204
 10
-794.9191826122106
 20
-552.5789164155731
 10
-794.957318345964
 20
-552.5655307152232
 10
-794.9952371332068
 20
-552.5517543167707
 10
-795.032938973939
 20
-552.5375872202165
 10
-795.0704238681606
 20
-552.5230294255597
 10
-795.1076918158721
 20
-552.5080809328005
 10
-795.144742817073
 20
-552.4927417419389
 10
-795.181576871763
 20
-552.4770118529751
 10
-795.2181939799427
 20
-552.4608912659089
 10
-795.2545941416119
 20
-552.4443799807405
 10
-795.2907773567704
 20
-552.4274779974696
 10
-795.3267436254185
 20
-552.4101853160963
 10
-795.362492947556
 20
-552.3925019366209
 10
-795.3980253231834
 20
-552.374427859043
 10
-795.4333407522998
 20
-552.3559630833629
 10
-795.4684392349061
 20
-552.3371076095801
 10
-795.5033207710014
 20
-552.3178614376953
 10
-795.5379853605864
 20
-552.2982245677081
 10
-795.5724330036612
 20
-552.2781969996185
 10
-795.6066637002252
 20
-552.2577787334265
 10
-795.6406774502783
 20
-552.2369697691324
 10
-795.6744742538216
 20
-552.2157701067357
 10
-795.7080541108541
 20
-552.1941797462368
 10
-795.7414170213759
 20
-552.1721986876355
 10
-795.7745629853874
 20
-552.1498269309319
 10
-795.8074920028882
 20
-552.127064476126
 10
-795.8402040738784
 20
-552.1039113232176
 10
-795.8726991983584
 20
-552.0803674722068
 10
-795.9049773763277
 20
-552.056432923094
 10
-795.9370386077867
 20
-552.0321076758786
 10
-795.9688828927347
 20
-552.0073917305609
 10
-796.0005102311725
 20
-551.982285087141
 10
-796.0319206230998
 20
-551.9567877456186
 10
-796.0631140685166
 20
-551.9308997059938
 10
-796.0940254956011
 20
-551.9046755700084
 10
-796.1245898325317
 20
-551.8781699394039
 10
-796.1548070793082
 20
-551.8513828141805
 10
-796.1846772359303
 20
-551.824314194338
 10
-796.2142003023987
 20
-551.7969640798765
 10
-796.2433762787126
 20
-551.769332470796
 10
-796.2722051648726
 20
-551.7414193670963
 10
-796.3006869608788
 20
-551.7132247687776
 10
-796.3288216667304
 20
-551.68474867584
 10
-796.3566092824284
 20
-551.6559910882834
 10
-796.3840498079721
 20
-551.6269520061077
 10
-796.4111432433618
 20
-551.5976314293128
 10
-796.4378895885976
 20
-551.5680293578988
 10
-796.464288843679
 20
-551.538145791866
 10
-796.4903410086066
 20
-551.5079807312142
 10
-796.5160460833798
 20
-551.4775341759432
 10
-796.5414040679994
 20
-551.4468061260532
 10
-796.5664149624646
 20
-551.4157965815443
 10
-796.5910787667758
 20
-551.3845055424162
 10
-796.6153954809331
 20
-551.3529330086692
 10
-796.639365104936
 20
-551.3210789803031
 10
-796.6629876387849
 20
-551.288943457318
 10
-796.6862630824798
 20
-551.2565264397137
 10
-796.7091914360207
 20
-551.2238279274905
 10
-796.7317726994076
 20
-551.1908479206483
 10
-796.7540068726403
 20
-551.157586419187
 10
-796.7758939557188
 20
-551.1240434231067
 10
-796.7974339486435
 20
-551.0902189324074
 10
-796.8186268514141
 20
-551.0561129470889
 10
-796.8394726640305
 20
-551.0217254671516
 10
-796.859971386493
 20
-550.9870564925951
 10
-796.880123018801
 20
-550.9521060234196
 10
-796.8999275609552
 20
-550.916874059625
 10
-796.9193850129553
 20
-550.8813606012116
 10
-796.9384953748015
 20
-550.845565648179
 10
-796.9572586464935
 20
-550.8094892005273
 10
-796.9756748280312
 20
-550.7731312582568
 10
-796.9937439194152
 20
-550.7364918213672
 10
-797.011465920645
 20
-550.6995708898584
 10
-797.0288408317206
 20
-550.6623684637304
 10
-797.0458686526423
 20
-550.6248845429837
 10
-797.0625493834102
 20
-550.5871191276177
 10
-797.0788830240236
 20
-550.5490722176329
 10
-797.094869574483
 20
-550.510743813029
 10
-797.1105090347887
 20
-550.472133913806
 10
-797.1258014049399
 20
-550.4332425199641
 10
-797.1407466849369
 20
-550.394069631503
 10
-797.15534487478
 20
-550.3546152484228
 10
-797.1695959744693
 20
-550.3148793707238
 10
-797.1834999840043
 20
-550.2748619984059
 10
-797.1970569033852
 20
-550.2345631314685
 10
-797.2102667326121
 20
-550.1939827699122
 10
-797.223129471685
 20
-550.1531209137372
 10
-797.2356451206036
 20
-550.1119775629429
 10
-797.2478136793683
 20
-550.0705527175296
 10
-797.259635147979
 20
-550.0288463774973
 10
-797.2711095264355
 20
-549.9868585428458
 10
-797.2822368147382
 20
-549.9445892135754
 10
-797.2930170128863
 20
-549.902038389686
 10
-797.3034501208807
 20
-549.8592060711776
 10
-797.3135361387211
 20
-549.81609225805
 10
-797.3232750664073
 20
-549.7726969503035
 10
-797.3326669039392
 20
-549.7290201479379
 10
-797.3417116513175
 20
-549.6850618509531
 10
-797.3503907379828
 20
-549.6409143742191
 10
-797.3586855933771
 20
-549.5966700326053
 10
-797.3665962175001
 20
-549.5523288261114
 10
-797.3741226103522
 20
-549.5078907547377
 10
-797.3812647719329
 20
-549.463355818484
 10
-797.388022702243
 20
-549.4187240173505
 10
-797.3943964012816
 20
-549.3739953513371
 10
-797.400385869049
 20
-549.329169820444
 10
-797.4059911055452
 20
-549.2842474246707
 10
-797.4112121107705
 20
-549.2392281640177
 10
-797.4160488847244
 20
-549.1941120384847
 10
-797.4205014274074
 20
-549.1488990480719
 10
-797.4245697388189
 20
-549.1035891927793
 10
-797.4282538189596
 20
-549.0581824726066
 10
-797.431553667829
 20
-549.012678887554
 10
-797.4344692854275
 20
-548.9670784376218
 10
-797.4370006717549
 20
-548.9213811228096
 10
-797.4391478268111
 20
-548.8755869431174
 10
-797.440910750596
 20
-548.8296958985454
 10
-797.4422894431096
 20
-548.7837079890935
 10
-797.4432839043521
 20
-548.7376232147616
 10
-797.4438941343236
 20
-548.6914415755499
 10
-797.4441201330239
 20
-548.6451630714584
 10
-797.4439619004531
 20
-548.598787702487
 10
-797.4434194366115
 20
-548.5523154686356
 10
-797.4424927414984
 20
-548.5057463699044
 10
-797.4411818151143
 20
-548.4590804062933
 10
-797.4394866574588
 20
-548.4123175778023
 10
-797.4374072685325
 20
-548.3654578844315
 10
-797.4349436483347
 20
-548.3185013261807
 10
-797.4320957968658
 20
-548.27144790305
 10
-797.4288637141261
 20
-548.2242976150395
 10
-797.425247400115
 20
-548.1770504621492
 10
-797.4212468548328
 20
-548.1297064443788
 10
-797.4168620782794
 20
-548.0822655617286
 10
-797.412093070455
 20
-548.0347278141985
 10
-797.4069398313595
 20
-547.9870932017885
 10
-797.4014023609925
 20
-547.9393617244985
 10
-797.3954806593547
 20
-547.8915333823287
 10
-797.3891747264457
 20
-547.8436081752792
 10
-797.3824845622657
 20
-547.7955861033497
 10
-797.3754101668143
 20
-547.7474671665405
 10
-797.3679515400919
 20
-547.6992513648512
 10
-797.3601086820982
 20
-547.650938698282
 10
-797.3518815928337
 20
-547.602529166833
 10
-797.3432702722978
 20
-547.554022770504
 10
-797.3342747204908
 20
-547.5054195092951
 10
-797.3248949374124
 20
-547.4567193832065
 10
-797.3151309230634
 20
-547.4079223922379
 10
-797.3049826774428
 20
-547.3590285363894
 10
-797.2944502005514
 20
-547.310037815661
 10
-797.2835334923887
 20
-547.2609502300529
 10
-797.272232552955
 20
-547.2117657795648
 10
-797.2605473822499
 20
-547.1624844641967
 10
-797.2484779802739
 20
-547.1131062839488
 10
-797.2360243470268
 20
-547.0636312388211
 10
-797.2231864825081
 20
-547.0140593288134
 10
-797.2099643867188
 20
-546.964390553926
 10
-797.196358059658
 20
-546.9146249141585
 10
-797.1823675013263
 20
-546.8647624095113
 10
-797.1679927117232
 20
-546.8148030399841
 10
-797.1532336908493
 20
-546.7647468055767
 10
-797.1380904387041
 20
-546.7145937062898
 10
-797.1225629552876
 20
-546.664343742123
 10
-797.1066841472707
 20
-546.6141022053789
 10
-797.0904869213251
 20
-546.5639743883606
 10
-797.0739712774494
 20
-546.513960291068
 10
-797.0571372156447
 20
-546.4640599135007
 10
-797.0399847359101
 20
-546.414273255659
 10
-797.0225138382467
 20
-546.3646003175431
 10
-797.0047245226537
 20
-546.3150410991527
 10
-796.9866167891312
 20
-546.2655956004879
 10
-796.9681906376792
 20
-546.2162638215488
 10
-796.9494460682982
 20
-546.1670457623352
 10
-796.9303830809874
 20
-546.1179414228472
 10
-796.9110016757473
 20
-546.0689508030847
 10
-796.8913018525778
 20
-546.0200739030481
 10
-796.871283611479
 20
-545.9713107227369
 10
-796.8509469524508
 20
-545.9226612621514
 10
-796.8302918754933
 20
-545.8741255212913
 10
-796.8093183806062
 20
-545.8257035001571
 10
-796.7880264677899
 20
-545.7773951987483
 10
-796.7664161370439
 20
-545.7292006170653
 10
-796.7444873883687
 20
-545.6811197551078
 10
-796.722240221764
 20
-545.6331526128758
 10
-796.69967463723
 20
-545.5852991903696
 10
-796.6767906347667
 20
-545.5375594875888
 10
-796.6535882143738
 20
-545.4899335045337
 10
-796.6300673760513
 20
-545.4424212412043
 10
-796.6062281197996
 20
-545.3950226976005
 10
-796.5820704456184
 20
-545.3477378737221
 10
-796.5575943535083
 20
-545.3005667695695
 10
-796.5327998434682
 20
-545.2535093851424
 10
-796.507686915499
 20
-545.2065657204409
 10
-796.4822555696005
 20
-545.1597357754649
 10
-796.4565058057725
 20
-545.1130195502148
 10
-796.4304376240152
 20
-545.0664170446903
 10
-796.4040510243282
 20
-545.0199282588912
 10
-796.3773460067121
 20
-544.9735531928176
 10
-796.3503225711662
 20
-544.9272918464697
 10
-796.3229807176912
 20
-544.8811442198477
 10
-796.2953204462867
 20
-544.8351103129509
 10
-796.2673417569528
 20
-544.7891901257799
 10
-796.2390446496898
 20
-544.7433836583345
 10
-796.210429124497
 20
-544.6976909106147
 10
-796.1814951813749
 20
-544.6521118826206
 10
-796.1522428203233
 20
-544.606646574352
 10
-796.1226720413423
 20
-544.5612949858088
 10
-796.0927828444323
 20
-544.5160571169913
 10
-796.0625752295925
 20
-544.4709329678996
 10
-796.0320491968235
 20
-544.4259225385336
 10
-796.0012047461251
 20
-544.3810258288928
 10
-795.9700418774972
 20
-544.3362428389779
 10
-795.9385605909399
 20
-544.2915735687886
 10
-795.906760886453
 20
-544.2470180183248
 10
-795.8746427640371
 20
-544.2025761875867
 10
-795.8422062236914
 20
-544.1582480765742
 10
-795.8094512654168
 20
-544.1140336852872
 10
-795.7763778892126
 20
-544.0699330137258
 10
-795.742986095079
 20
-544.02594606189
 10
-795.7092758830159
 20
-543.9820728297798
 10
-795.6752472530234
 20
-543.9383133173954
 10
-795.6409002051015
 20
-543.8946675247364
 10
-795.6062347392502
 20
-543.8511354518031
 10
-795.5712508554695
 20
-543.8077170985953
 10
-795.5359485537593
 20
-543.7644124651131
 10
-795.5003278341198
 20
-543.7212215513567
 10
-795.464388696551
 20
-543.6781443573257
 10
-795.4282067076372
 20
-543.6352709397689
 10
-795.3918574339627
 20
-543.5926913554347
 10
-795.3553408755277
 20
-543.5504056043226
 10
-795.3186570323318
 20
-543.5084136864332
 10
-795.2818059043753
 20
-543.466715601766
 10
-795.2447874916584
 20
-543.4253113503215
 10
-795.2076017941807
 20
-543.3842009320994
 10
-795.1702488119424
 20
-543.3433843470997
 10
-795.1327285449437
 20
-543.3028615953225
 10
-795.0950409931843
 20
-543.2626326767676
 10
-795.0571861566641
 20
-543.2226975914353
 10
-795.0191640353832
 20
-543.1830563393255
 10
-794.9809746293419
 20
-543.143708920438
 10
-794.94261793854
 20
-543.1046553347731
 10
-794.9040939629774
 20
-543.0658955823306
 10
-794.8654027026541
 20
-543.0274296631105
 10
-794.8265441575702
 20
-542.989257577113
 10
-794.7875183277257
 20
-542.9513793243379
 10
-794.7483252131205
 20
-542.9137949047852
 10
-794.7089648137549
 20
-542.8765043184551
 10
-794.6694371296286
 20
-542.8395075653472
 10
-794.6297421607416
 20
-542.802804645462
 10
-794.5898799070938
 20
-542.7663955587992
 10
-794.5498503686857
 20
-542.7302803053589
 10
-794.5096535455169
 20
-542.6944588851409
 10
-794.4692894375874
 20
-542.6589312981453
 10
-794.4287580448974
 20
-542.6236975443722
 10
-794.3880593674467
 20
-542.5887576238217
 10
-794.3471934052354
 20
-542.5541115364937
 10
-794.3061601582635
 20
-542.519759282388
 10
-794.2649596265308
 20
-542.4857008615047
 10
-794.2235918100376
 20
-542.451936273844
 10
-794.1820567087839
 20
-542.4184655194056
 10
-794.1403543227694
 20
-542.3852885981898
 10
-794.0984846519943
 20
-542.3524055101965
 10
-794.0564476964587
 20
-542.3198162554256
 10
-794.0142434561622
 20
-542.2875208338771
 10
-793.9718719311055
 20
-542.2555192455511
 10
-793.929333121288
 20
-542.2238114904477
 10
-793.8866270267099
 20
-542.1923975685665
 10
-793.8437536473709
 20
-542.1612774799078
 10
-793.8007129832715
 20
-542.1304512244716
 10
-793.7575050344113
 20
-542.0999188022579
 10
-793.7141298007907
 20
-542.0696802132665
 10
-793.6705872824095
 20
-542.0397354574978
 10
-793.6268774792676
 20
-542.0100845349513
 10
-793.583000391365
 20
-541.9807274456275
 10
-793.5389560187018
 20
-541.951664189526
 10
-793.4947443612781
 20
-541.9228947666471
 10
-793.4503654190936
 20
-541.8944191769907
 10
-793.4058191921484
 20
-541.8662374205564
 10
-793.3611056804428
 20
-541.8383494973449
 10
-793.3162248839766
 20
-541.8107554073555
 10
-793.2711768027497
 20
-541.7834551505888
 10
-793.2259614367621
 20
-541.7564487270448
 10
-793.180578786014
 20
-541.7297361367229
 10
-793.1350288505052
 20
-541.7033173796236
 10
-793.0893116302359
 20
-541.6771924557468
 10
-793.0434271252056
 20
-541.6513613650923
 10
-792.9973753354153
 20
-541.6258241076603
 10
-792.9511562608639
 20
-541.6005806834507
 10
-792.9047699015524
 20
-541.5756310924637
 10
-792.8582162574794
 20
-541.5509753346992
 10
-792.8114953286465
 20
-541.5266134101569
 10
-792.7647050935456
 20
-541.5025960093982
 10
-792.7179435306689
 20
-541.4789738229845
 10
-792.6712106400172
 20
-541.4557468509152
 10
-792.6245064215901
 20
-541.4329150931905
 10
-792.5778308753876
 20
-541.4104785498103
 10
-792.5311840014098
 20
-541.388437220775
 10
-792.4845657996566
 20
-541.3667911060842
 10
-792.4379762701285
 20
-541.3455402057381
 10
-792.3914154128246
 20
-541.3246845197366
 10
-792.3448832277455
 20
-541.3042240480797
 10
-792.298379714891
 20
-541.2841587907676
 10
-792.2519048742612
 20
-541.2644887477999
 10
-792.2054587058561
 20
-541.2452139191771
 10
-792.1590412096759
 20
-541.2263343048987
 10
-792.11265238572
 20
-541.207849904965
 10
-792.066292233989
 20
-541.189760719376
 10
-792.0199607544828
 20
-541.1720667481317
 10
-791.9736579472011
 20
-541.1547679912319
 10
-791.9273838121438
 20
-541.1378644486769
 10
-791.8811383493115
 20
-541.1213561204664
 10
-791.8349215587039
 20
-541.1052430066006
 10
-791.7887334403206
 20
-541.0895251070794
 10
-791.7425739941624
 20
-541.0742024219031
 10
-791.6964432202286
 20
-541.059274951071
 10
-791.6503411185199
 20
-541.044742694584
 10
-791.6042676890351
 20
-541.0306056524412
 10
-791.5582229317756
 20
-541.0168638246432
 10
-791.5122068467406
 20
-541.0035172111897
 10
-791.4662194339304
 20
-540.9905658120812
 10
-791.4202606933446
 20
-540.9780096273172
 10
-791.3743306249837
 20
-540.9658486568977
 10
-791.3284292288472
 20
-540.9540829008228
 10
-791.2825565049353
 20
-540.9427123590928
 10
-791.2367124532484
 20
-540.9317370317073
 10
-791.1908970737861
 20
-540.9211569186664
 10
-791.1451103665484
 20
-540.9109720199703
 10
-791.0993523315353
 20
-540.9011823356188
 10
-791.0536229687469
 20
-540.8917878656118
 10
-791.0079222781834
 20
-540.8827886099496
 10
-790.9622502598445
 20
-540.8741845686319
 10
-790.9166069137303
 20
-540.8659757416589
 10
-790.8709922398403
 20
-540.8581621290306
 10
-790.8254062381756
 20
-540.8507437307467
 10
-790.779848908735
 20
-540.8437205468077
 10
-790.7343202515196
 20
-540.8370925772133
 10
-790.6888202665286
 20
-540.8308598219633
 10
-790.6433489537622
 20
-540.8250222810583
 10
-790.5979063132206
 20
-540.8195799544976
 10
-790.5524923449036
 20
-540.8145328422819
 10
-790.5071070488113
 20
-540.8098809444107
 10
-790.4617504249438
 20
-540.805624260884
 10
-790.4164224733008
 20
-540.8017627917019
 10
-790.3711231938824
 20
-540.7982965368647
 10
-790.3258525866889
 20
-540.7952254963722
 10
-790.2806106517199
 20
-540.7925496702241
 10
-790.2353973889757
 20
-540.7902690584206
 10
-790.1902127984564
 20
-540.7883836609619
 10
-790.1450568801614
 20
-540.7868934778478
 10
-790.099929634091
 20
-540.7857985090783
 10
-790.0548310602451
 20
-540.7850987546535
 10
-790.0097611586244
 20
-540.7847942145734
 10
-789.9647199292281
 20
-540.7848848888376
 10
-789.9197073720564
 20
-540.7853707774468
 10
-789.8747234871096
 20
-540.7862518804003
 10
-789.8747234871096
 20
-540.7862518804003
  0
TEXT
  5
3F8
330
4C4
100
AcDbEntity
  8
DATA
 62
     7
100
AcDbText
 10
749.9999999999996
 20
-1624.841239999999
 30
0.0
 40
36.64892578125
  1
JBL PROFESSIONAL
 41
0.7
 11
749.9999999999996
 21
-1588.192314218749
 31
0.0
100
AcDbText
 73
     3
  0
LINE
  5
3F9
330
4C4
100
AcDbEntity
  8
DATA
  6
Continuous
 62
     7
100
AcDbLine
 10
-709.0000000000182
 20
-756.7825080515559
 30
0.0
 11
-709.0000000000182
 21
-822.4849363840297
 31
0.0
  0
LINE
  5
3FA
330
4C4
100
AcDbEntity
  8
DATA
  6
Continuous
 62
     7
100
AcDbLine
 10
-691.0000000000183
 20
-756.7825080515546
 30
0.0
 11
-691.0000000000183
 21
-822.4849363840297
 31
0.0
  0
ARC
  5
3FB
330
4C4
100
AcDbEntity
  8
DATA
  6
Continuous
 62
     7
100
AcDbCircle
 10
-700.0000000000255
 20
-49.99999999998578
 30
0.0
 40
152.5548035977702
100
AcDbArc
 50
80.28242077044096
 51
99.71757922955696
  0
LINE
  5
3FC
330
4C4
100
AcDbEntity
  8
DATA
  6
Continuous
 62
     7
100
AcDbLine
 10
-725.7500000000329
 20
100.3659057125616
 30
0.0
 11
-710.5081716206465
 21
68.23342664012153
 31
0.0
  0
CIRCLE
  5
3FD
330
4C4
100
AcDbEntity
  8
DATA
  6
Continuous
 62
     7
100
AcDbCircle
 10
-700.0000000000182
 20
-49.99999999998578
 30
0.0
 40
118.6994728120989
  0
ARC
  5
3FE
330
4C4
100
AcDbEntity
  8
DATA
  6
Continuous
 62
     7
100
AcDbCircle
 10
-700.0000000000182
 20
116.500000000041
 30
0.0
 40
10.00000000000004
100
AcDbArc
 50
36.86989764587477
 51
143.1301023541513
  0
LINE
  5
3FF
330
4C4
100
AcDbEntity
  8
DATA
  6
Continuous
 62
     7
100
AcDbLine
 10
-725.7500000000178
 20
100.3659057125696
 30
0.0
 11
-708.0000000000183
 21
122.5000000000411
 31
0.0
  0
LINE
  5
400
330
4C4
100
AcDbEntity
  8
DATA
  6
Continuous
 62
     7
100
AcDbLine
 10
-674.250000000018
 20
100.3659057125694
 30
0.0
 11
-692.0000000000182
 21
122.5000000000411
 31
0.0
  0
CIRCLE
  5
401
330
4C4
100
AcDbEntity
  8
DATA
  6
Continuous
 62
     7
100
AcDbCircle
 10
-700.0000000000182
 20
116.5000000000411
 30
0.0
 40
3.299999999999727
  0
ARC
  5
402
330
4C4
100
AcDbEntity
  8
DATA
  6
Continuous
 62
     7
100
AcDbCircle
 10
-700.0000000000207
 20
-49.99999999998255
 30
0.0
 40
152.5548035977702
100
AcDbArc
 50
80.28242077044096
 51
99.71757922955696
  0
LINE
  5
403
330
4C4
100
AcDbEntity
  8
DATA
  6
STYLE_06
 62
     7
100
AcDbLine
 10
-699.9999999999991
 20
-700.0
 30
0.0
 11
-699.9999999999991
 21
-1100.0
 31
0.0
  0
TEXT
  5
404
330
4C4
100
AcDbEntity
  8
DATA
 62
     7
100
AcDbText
 10
575.0
 20
-1678.900565
 30
0.0
 40
28.50472005208333
  1
地面設置用同軸2-Wayフルレンジ・スピーカー
 41
0.7
 11
575.0
 21
-1650.395844947917
 31
0.0
100
AcDbText
 73
     3
  0
LINE
  5
405
330
4C4
100
AcDbEntity
  8
DATA
  6
Continuous
 62
     7
100
AcDbLine
 10
-674.2500000000038
 20
100.3659057125616
 30
0.0
 11
-689.4918283793903
 21
68.23342664012153
 31
0.0
  0
ARC
  5
406
330
4C4
100
AcDbEntity
  8
DATA
  6
Continuous
 62
     7
100
AcDbCircle
 10
-699.9999999999991
 20
-50.0000000000001
 30
0.0
 40
152.5548035977702
100
AcDbArc
 50
200.282420770441
 51
219.717579229557
  0
LINE
  5
407
330
4C4
100
AcDbEntity
  8
DATA
  6
Continuous
 62
     7
100
AcDbLine
 10
-817.345694210117
 20
-147.4831070037294
 30
0.0
 11
-797.1390652365053
 21
-118.2170568908381
 31
0.0
  0
ARC
  5
408
330
4C4
100
AcDbEntity
  8
DATA
  6
Continuous
 62
     7
100
AcDbCircle
 10
-844.1932297301347
 20
-133.2500000000072
 30
0.0
 40
10.00000000000007
100
AcDbArc
 50
156.8698976458745
 51
263.1301023541514
  0
LINE
  5
409
330
4C4
100
AcDbEntity
  8
DATA
  6
Continuous
 62
     7
100
AcDbLine
 10
-817.3456942101315
 20
-147.4831070037204
 30
0.0
 11
-845.3893821528414
 21
-143.1782032302827
 31
0.0
  0
LINE
  5
40A
330
4C4
100
AcDbEntity
  8
DATA
  6
Continuous
 62
     7
100
AcDbLine
 10
-843.0956942101314
 20
-102.8827987088217
 30
0.0
 11
-853.3893821528414
 21
-129.3217967697318
 31
0.0
  0
CIRCLE
  5
40B
330
4C4
100
AcDbEntity
  8
DATA
  6
Continuous
 62
     7
100
AcDbCircle
 10
-844.1932297301351
 20
-133.2500000000073
 30
0.0
 40
3.29999999999974
  0
ARC
  5
40C
330
4C4
100
AcDbEntity
  8
DATA
  6
Continuous
 62
     7
100
AcDbCircle
 10
-700.0000000000044
 20
-49.99999999999744
 30
0.0
 40
152.5548035977701
100
AcDbArc
 50
200.2824207704409
 51
219.717579229557
  0
LINE
  5
40D
330
4C4
100
AcDbEntity
  8
DATA
  6
Continuous
 62
     7
100
AcDbLine
 10
-843.0956942101316
 20
-102.8827987088056
 30
0.0
 11
-807.6472368571335
 21
-100.0163697492568
 31
0.0
  0
ARC
  5
40E
330
4C4
100
AcDbEntity
  8
DATA
  6
Continuous
 62
     7
100
AcDbCircle
 10
-700.0
 20
-49.99999999996987
 30
0.0
 40
152.5548035977701
100
AcDbArc
 50
320.2824207704409
 51
339.7175792295569
  0
LINE
  5
40F
330
4C4
100
AcDbEntity
  8
DATA
  6
Continuous
 62
     7
100
AcDbLine
 10
-556.9043057898746
 20
-102.8827987087879
 30
0.0
 11
-592.3527631428728
 21
-100.0163697492391
 31
0.0
  0
ARC
  5
410
330
4C4
100
AcDbEntity
  8
DATA
  6
Continuous
 62
     7
100
AcDbCircle
 10
-555.8067702698713
 20
-133.2499999999896
 30
0.0
 40
10.00000000000002
100
AcDbArc
 50
276.8698976458741
 51
23.13010235415175
  0
LINE
  5
411
330
4C4
100
AcDbEntity
  8
DATA
  6
Continuous
 62
     7
100
AcDbLine
 10
-556.9043057898752
 20
-102.8827987088049
 30
0.0
 11
-546.6106178471648
 21
-129.3217967697141
 31
0.0
  0
LINE
  5
412
330
4C4
100
AcDbEntity
  8
DATA
  6
Continuous
 62
     7
100
AcDbLine
 10
-582.6543057898755
 20
-147.4831070037034
 30
0.0
 11
-554.6106178471648
 21
-143.1782032302652
 31
0.0
  0
CIRCLE
  5
413
330
4C4
100
AcDbEntity
  8
DATA
  6
Continuous
 62
     7
100
AcDbCircle
 10
-555.8067702698711
 20
-133.2499999999896
 30
0.0
 40
3.299999999999788
  0
ARC
  5
414
330
4C4
100
AcDbEntity
  8
DATA
  6
Continuous
 62
     7
100
AcDbCircle
 10
-699.9999999999996
 20
-49.99999999997584
 30
0.0
 40
152.5548035977701
100
AcDbArc
 50
320.2824207704409
 51
339.7175792295569
  0
LINE
  5
415
330
4C4
100
AcDbEntity
  8
DATA
  6
Continuous
 62
     7
100
AcDbLine
 10
-582.6543057898892
 20
-147.4831070037118
 30
0.0
 11
-602.8609347635009
 21
-118.2170568908205
 31
0.0
  0
ARC
  5
416
330
4C4
100
AcDbEntity
  8
DATA
  6
Continuous
 62
     7
100
AcDbCircle
 10
-700.000000000008
 20
-900.0000000000003
 30
0.0
 40
143.5000000000102
100
AcDbArc
 50
158.7015342794209
 51
261.2984657205714
  0
ARC
  5
417
330
4C4
100
AcDbEntity
  8
DATA
  6
Continuous
 62
     7
100
AcDbCircle
 10
-700.000000000008
 20
-900.0000000000003
 30
0.0
 40
143.5000000000104
100
AcDbArc
 50
38.70153427942105
 51
141.2984657205714
  0
ARC
  5
418
330
4C4
100
AcDbEntity
  8
DATA
  6
Continuous
 62
     7
100
AcDbCircle
 10
-700.000000000008
 20
-900.0000000000003
 30
0.0
 40
143.5000000000104
100
AcDbArc
 50
278.701534279421
 51
21.29846572057136
  0
ARC
  5
419
330
4C4
100
AcDbEntity
  8
DATA
  6
Continuous
 62
     7
100
AcDbCircle
 10
-700.0000000000255
 20
-900.0
 30
0.0
 40
152.5548035977704
100
AcDbArc
 50
260.282420770443
 51
279.717579229559
  0
LINE
  5
41A
330
4C4
100
AcDbEntity
  8
DATA
  6
Continuous
 62
     7
100
AcDbLine
 10
-725.7500000000329
 20
-1050.365905712547
 30
0.0
 11
-721.7097261591129
 21
-1041.848291459924
 31
0.0
  0
ARC
  5
41B
330
4C4
100
AcDbEntity
  8
DATA
  6
Continuous
 62
     7
100
AcDbCircle
 10
-700.0000000000182
 20
-1066.500000000026
 30
0.0
 40
10.00000000000004
100
AcDbArc
 50
216.8698976458487
 51
323.1301023541253
  0
LINE
  5
41C
330
4C4
100
AcDbEntity
  8
DATA
  6
Continuous
 62
     7
100
AcDbLine
 10
-725.7500000000178
 20
-1050.365905712556
 30
0.0
 11
-708.0000000000183
 21
-1072.500000000026
 31
0.0
  0
LINE
  5
41D
330
4C4
100
AcDbEntity
  8
DATA
  6
Continuous
 62
     7
100
AcDbLine
 10
-674.250000000018
 20
-1050.365905712555
 30
0.0
 11
-692.0000000000182
 21
-1072.500000000026
 31
0.0
  0
CIRCLE
  5
41E
330
4C4
100
AcDbEntity
  8
DATA
  6
Continuous
 62
     7
100
AcDbCircle
 10
-700.0000000000182
 20
-1066.500000000026
 30
0.0
 40
3.299999999999727
  0
ARC
  5
41F
330
4C4
100
AcDbEntity
  8
DATA
  6
Continuous
 62
     7
100
AcDbCircle
 10
-700.0000000000207
 20
-900.0000000000031
 30
0.0
 40
152.5548035977704
100
AcDbArc
 50
260.282420770443
 51
279.717579229559
  0
LINE
  5
420
330
4C4
100
AcDbEntity
  8
DATA
  6
Continuous
 62
     7
100
AcDbLine
 10
-674.2500000000038
 20
-1050.365905712547
 30
0.0
 11
-678.2902738409224
 21
-1041.848291459928
 31
0.0
  0
ARC
  5
421
330
4C4
100
AcDbEntity
  8
DATA
  6
Continuous
 62
     7
100
AcDbCircle
 10
-699.9999999999991
 20
-899.9999999999856
 30
0.0
 40
152.5548035977702
100
AcDbArc
 50
140.282420770443
 51
159.717579229559
  0
LINE
  5
422
330
4C4
100
AcDbEntity
  8
DATA
  6
Continuous
 62
     7
100
AcDbLine
 10
-817.345694210117
 20
-802.5168929962566
 30
0.0
 11
-811.9893608081694
 21
-810.2746799070501
 31
0.0
  0
ARC
  5
423
330
4C4
100
AcDbEntity
  8
DATA
  6
Continuous
 62
     7
100
AcDbCircle
 10
-844.1932297301347
 20
-816.7499999999785
 30
0.0
 40
9.999999999999944
100
AcDbArc
 50
96.86989764584865
 51
203.1301023541252
  0
LINE
  5
424
330
4C4
100
AcDbEntity
  8
DATA
  6
Continuous
 62
     7
100
AcDbLine
 10
-817.3456942101315
 20
-802.5168929962653
 30
0.0
 11
-845.3893821528414
 21
-806.821796769703
 31
0.0
  0
LINE
  5
425
330
4C4
100
AcDbEntity
  8
DATA
  6
Continuous
 62
     7
100
AcDbLine
 10
-843.0956942101314
 20
-847.1172012911639
 30
0.0
 11
-853.3893821528414
 21
-820.6782032302541
 31
0.0
  0
CIRCLE
  5
426
330
4C4
100
AcDbEntity
  8
DATA
  6
Continuous
 62
     7
100
AcDbCircle
 10
-844.1932297301351
 20
-816.7499999999785
 30
0.0
 40
3.29999999999969
  0
ARC
  5
427
330
4C4
100
AcDbEntity
  8
DATA
  6
Continuous
 62
     7
100
AcDbCircle
 10
-700.0000000000044
 20
-899.9999999999884
 30
0.0
 40
152.5548035977702
100
AcDbArc
 50
140.282420770443
 51
159.717579229559
  0
LINE
  5
428
330
4C4
100
AcDbEntity
  8
DATA
  6
Continuous
 62
     7
100
AcDbLine
 10
-843.0956942101316
 20
-847.11720129118
 30
0.0
 11
-833.6990869672675
 21
-847.8770286330085
 31
0.0
  0
ARC
  5
429
330
4C4
100
AcDbEntity
  8
DATA
  6
Continuous
 62
     7
100
AcDbCircle
 10
-700.0
 20
-900.0000000000159
 30
0.0
 40
152.5548035977703
100
AcDbArc
 50
20.28242077044305
 51
39.71757922955904
  0
LINE
  5
42A
330
4C4
100
AcDbEntity
  8
DATA
  6
Continuous
 62
     7
100
AcDbLine
 10
-556.9043057898746
 20
-847.1172012911978
 30
0.0
 11
-566.3009130327422
 21
-847.8770286330263
 31
0.0
  0
ARC
  5
42B
330
4C4
100
AcDbEntity
  8
DATA
  6
Continuous
 62
     7
100
AcDbCircle
 10
-555.8067702698713
 20
-816.7499999999963
 30
0.0
 40
9.999999999999984
100
AcDbArc
 50
336.8698976458492
 51
83.13010235412582
  0
LINE
  5
42C
330
4C4
100
AcDbEntity
  8
DATA
  6
Continuous
 62
     7
100
AcDbLine
 10
-556.9043057898752
 20
-847.1172012911809
 30
0.0
 11
-546.6106178471648
 21
-820.6782032302715
 31
0.0
  0
LINE
  5
42D
330
4C4
100
AcDbEntity
  8
DATA
  6
Continuous
 62
     7
100
AcDbLine
 10
-582.6543057898755
 20
-802.5168929962823
 30
0.0
 11
-554.6106178471648
 21
-806.8217967697204
 31
0.0
  0
CIRCLE
  5
42E
330
4C4
100
AcDbEntity
  8
DATA
  6
Continuous
 62
     7
100
AcDbCircle
 10
-555.8067702698711
 20
-816.7499999999963
 30
0.0
 40
3.299999999999887
  0
ARC
  5
42F
330
4C4
100
AcDbEntity
  8
DATA
  6
Continuous
 62
     7
100
AcDbCircle
 10
-699.9999999999996
 20
-900.0000000000099
 30
0.0
 40
152.5548035977703
100
AcDbArc
 50
20.28242077044305
 51
39.71757922955908
  0
LINE
  5
430
330
4C4
100
AcDbEntity
  8
DATA
  6
Continuous
 62
     7
100
AcDbLine
 10
-582.6543057898892
 20
-802.5168929962738
 30
0.0
 11
-588.0106391918347
 21
-810.2746799070645
 31
0.0
  0
LINE
  5
431
330
4C4
100
AcDbEntity
  8
DATA
  6
Continuous
 62
     7
100
AcDbLine
 10
-819.5299862936547
 20
-979.4029746082989
 30
0.0
 11
-762.6300142674057
 21
-946.5517604420618
 31
0.0
  0
LINE
  5
432
330
4C4
100
AcDbEntity
  8
DATA
  6
Continuous
 62
     7
100
AcDbLine
 10
-828.5299862936557
 20
-963.8145173401793
 30
0.0
 11
-771.6300142674057
 21
-930.9633031739416
 31
0.0
  0
LINE
  5
433
330
4C4
100
AcDbEntity
  8
DATA
  6
Continuous
 62
     7
100
AcDbLine
 10
-580.4700137063819
 20
-979.4029746082989
 30
0.0
 11
-637.3699857326309
 21
-946.5517604420618
 31
0.0
  0
LINE
  5
434
330
4C4
100
AcDbEntity
  8
DATA
  6
Continuous
 62
     7
100
AcDbLine
 10
-571.4700137063809
 20
-963.8145173401793
 30
0.0
 11
-628.3699857326309
 21
-930.9633031739416
 31
0.0
  0
CIRCLE
  5
435
330
4C4
100
AcDbEntity
  8
DATA
  6
Continuous
 62
     7
100
AcDbCircle
 10
-700.0000000000182
 20
-844.1932297301233
 30
0.0
 40
23.50000000000086
  0
CIRCLE
  5
436
330
4C4
100
AcDbEntity
  8
DATA
  6
Continuous
 62
     7
100
AcDbCircle
 10
-748.3300807568842
 20
-927.9033851349554
 30
0.0
 40
23.50000000000086
  0
CIRCLE
  5
437
330
4C4
100
AcDbEntity
  8
DATA
  6
Continuous
 62
     7
100
AcDbCircle
 10
-651.6699192431524
 20
-927.9033851349554
 30
0.0
 40
23.50000000000086
  0
TEXT
  5
438
330
4C4
100
AcDbEntity
  8
DATA
 62
     7
100
AcDbText
 10
616.6196343315974
 20
-875.3605143229162
 30
0.0
 40
40.72102864583334
  1
入力選択スイッチ拡大図
 41
0.7
 72
     1
 11
800.0
 21
-854.9999999999995
 31
0.0
100
AcDbText
 73
     2
  0
LINE
  5
439
330
4C4
100
AcDbEntity
  8
DATA
  6
STYLE_06
 62
     7
100
AcDbLine
 10
-899.9999999999992
 20
-900.0
 30
0.0
 11
-499.9999999999991
 21
-900.0
 31
0.0
  0
CIRCLE
  5
43A
330
4C4
100
AcDbEntity
  8
DATA
  6
Continuous
 62
     7
100
AcDbCircle
 10
800.0
 20
-500.0
 30
0.0
 40
214.2000000000016
  0
CIRCLE
  5
43B
330
4C4
100
AcDbEntity
  8
DATA
  6
Continuous
 62
     7
100
AcDbCircle
 10
800.0
 20
-500.0
 30
0.0
 40
270.0
  0
LINE
  5
43C
330
4C4
100
AcDbEntity
  8
DATA
  6
Continuous
 62
     7
100
AcDbLine
 10
701.0
 20
-518.0
 30
0.0
 11
899.0
 21
-518.0
 31
0.0
  0
LINE
  5
43D
330
4C4
100
AcDbEntity
  8
DATA
  6
Continuous
 62
     7
100
AcDbLine
 10
1220.299999999998
 20
-464.0
 30
0.0
 11
1220.299999999998
 21
-536.0
 31
0.0
  0
LINE
  5
43E
330
4C4
100
AcDbEntity
  8
DATA
  6
Continuous
 62
     7
100
AcDbLine
 10
1112.299999999998
 20
-500.0
 30
0.0
 11
1220.299999999998
 21
-464.0
 31
0.0
  0
LINE
  5
43F
330
4C4
100
AcDbEntity
  8
DATA
  6
Continuous
 62
     7
100
AcDbLine
 10
1112.299999999998
 20
-500.0
 30
0.0
 11
1220.299999999998
 21
-536.0
 31
0.0
  0
LINE
  5
440
330
4C4
100
AcDbEntity
  8
DATA
  6
Continuous
 62
     7
100
AcDbLine
 10
379.7000000000016
 20
-464.0
 30
0.0
 11
379.7000000000016
 21
-536.0
 31
0.0
  0
LINE
  5
441
330
4C4
100
AcDbEntity
  8
DATA
  6
Continuous
 62
     7
100
AcDbLine
 10
487.7000000000015
 20
-500.0
 30
0.0
 11
379.7000000000016
 21
-464.0
 31
0.0
  0
LINE
  5
442
330
4C4
100
AcDbEntity
  8
DATA
  6
Continuous
 62
     7
100
AcDbLine
 10
487.7000000000015
 20
-500.0
 30
0.0
 11
379.7000000000016
 21
-536.0
 31
0.0
  0
LINE
  5
443
330
4C4
100
AcDbEntity
  8
DATA
  6
Continuous
 62
     7
100
AcDbLine
 10
701.0
 20
-482.0
 30
0.0
 11
899.0
 21
-482.0
 31
0.0
  0
LINE
  5
444
330
4C4
100
AcDbEntity
  8
DATA
  6
Continuous
 62
     7
100
AcDbLine
 10
899.0
 20
-482.0
 30
0.0
 11
899.0
 21
-518.0
 31
0.0
  0
LINE
  5
445
330
4C4
100
AcDbEntity
  8
DATA
  6
Continuous
 62
     7
100
AcDbLine
 10
701.0
 20
-482.0
 30
0.0
 11
701.0
 21
-518.0
 31
0.0
  0
TEXT
  5
446
330
4C4
100
AcDbEntity
  8
DATA
 62
     7
100
AcDbText
 10
921.6413818885252
 20
-535.0601497843712
 30
0.0
 40
29.319140625
  1
8Ω
 50
349.7
 41
0.7
 72
     1
 11
943.109032539912
 21
-524.0618050535521
 31
0.0
100
AcDbText
 73
     2
  0
TEXT
  5
447
330
4C4
100
AcDbEntity
  8
DATA
 62
     7
100
AcDbText
 10
883.4196707234539
 20
-587.4566257782582
 30
0.0
 40
29.319140625
  1
30
 50
319.7
 41
0.7
 72
     1
 11
904.6407404780993
 21
-586.2319790366143
 31
0.0
100
AcDbText
 73
     2
  0
TEXT
  5
448
330
4C4
100
AcDbEntity
  8
DATA
 62
     7
100
AcDbText
 10
829.091769491047
 20
-619.0596762739971
 30
0.0
 40
29.319140625
  1
15
 50
289.7
 41
0.7
 72
     1
 11
847.5055500065392
 21
-626.9994547033654
 31
0.0
100
AcDbText
 73
     2
  0
TEXT
  5
449
330
4C4
100
AcDbEntity
  8
DATA
 62
     7
100
AcDbText
 10
765.1844921557827
 20
-620.2952042451783
 30
0.0
 40
29.319140625
  1
7.5
 50
259.7
 41
0.7
 72
     1
 11
775.9381949464457
 21
-643.109032539912
 31
0.0
100
AcDbText
 73
     2
  0
TEXT
  5
44A
330
4C4
100
AcDbEntity
  8
DATA
 62
     7
100
AcDbText
 10
709.701283638664
 20
-586.7709489076519
 30
0.0
 40
29.319140625
  1
3.8
 50
229.7
 41
0.7
 72
     1
 11
707.6073492927589
 21
-611.9051551637991
 31
0.0
100
AcDbText
 73
     2
  0
TEXT
  5
44B
330
4C4
100
AcDbEntity
  8
DATA
 62
     7
100
AcDbText
 10
635.4233128365436
 20
-486.9365389554022
 30
0.0
 40
29.319140625
  1
8Ω
 50
349.7000000000001
 41
0.7
 72
     1
 11
656.8909634879303
 21
-475.938194224583
 31
0.0
100
AcDbText
 73
     2
  0
TEXT
  5
44C
330
4C4
100
AcDbEntity
  8
DATA
 62
     7
100
AcDbText
 10
712.1454412415105
 20
-408.7823156558489
 30
0.0
 40
29.319140625
  1
○
 50
139.6999999999999
 41
0.7
 72
     1
 11
695.3592595219005
 21
-413.7680209633816
 31
0.0
100
AcDbText
 73
     2
  0
TEXT
  5
44D
330
4C4
100
AcDbEntity
  8
DATA
 62
     7
100
AcDbText
 10
733.5041407794025
 20
-363.450584658006
 30
0.0
 40
29.319140625
  1
30
 50
289.7
 41
0.7
 72
     1
 11
752.494449653229
 21
-373.0005443464032
 31
0.0
100
AcDbText
 73
     2
  0
TEXT
  5
44E
330
4C4
100
AcDbEntity
  8
DATA
 62
     7
100
AcDbText
 10
810.3818019142895
 20
-350.1795298858076
 30
0.0
 40
29.319140625
  1
15
 50
259.7
 41
0.7
 72
     1
 11
822.3587144057328
 21
-366.2624699638064
 31
0.0
100
AcDbText
 73
     2
  0
TEXT
  5
44F
330
4C4
100
AcDbEntity
  8
DATA
 62
     7
100
AcDbText
 10
882.165242364703
 20
-377.4894671816945
 30
0.0
 40
29.319140625
  1
7.5
 50
229.7
 41
0.7
 72
     1
 11
880.0713080187978
 21
-402.6236734378416
 31
0.0
100
AcDbText
 73
     2
  0
TEXT
  5
450
330
4C4
100
AcDbEntity
  8
DATA
 62
     7
100
AcDbText
 10
760.3501835282692
 20
-560.0018751579114
 30
0.0
 40
29.319140625
  1
70V
 41
0.7
 72
     1
 11
789.4249979813942
 21
-545.3423048454115
 31
0.0
100
AcDbText
 73
     2
  0
TEXT
  5
451
330
4C4
100
AcDbEntity
  8
DATA
 62
     7
100
AcDbText
 10
833.1556680997278
 20
-439.9981248420884
 30
0.0
 40
29.319140625
  1
100V
 50
180.0
 41
0.7
 72
     1
 11
798.9500040372279
 21
-454.6576951545884
 31
0.0
100
AcDbText
 73
     2
  0
LINE
  5
452
330
4C4
100
AcDbEntity
  8
DATA
  6
STYLE_06
 62
     7
100
AcDbLine
 10
-873.2050807568869
 20
-1000.0
 30
0.0
 11
-526.7949192431112
 21
-800.0
 31
0.0
  0
LINE
  5
453
330
4C4
100
AcDbEntity
  8
DATA
  6
STYLE_06
 62
     7
100
AcDbLine
 10
-526.7949192431112
 20
-1000.0
 30
0.0
 11
-873.2050807568864
 21
-800.0
 31
0.0
  0
ENDSEC
  0
SECTION
  2
OBJECTS
  0
DICTIONARY
  5
461
330
0
100
AcDbDictionary
281
     1
  3
ACAD_CIP_PREVIOUS_PRODUCT_INFO
350
4DD
  3
ACAD_COLOR
350
4B7
  3
ACAD_DETAILVIEWSTYLE
350
4BE
  3
ACAD_GROUP
350
462
  3
ACAD_LAYOUT
350
4B6
  3
ACAD_MATERIAL
350
465
  3
ACAD_MLEADERSTYLE
350
4BA
  3
ACAD_MLINESTYLE
350
4B3
  3
ACAD_PLOTSETTINGS
350
4B5
  3
ACAD_PLOTSTYLENAME
350
463
  3
ACAD_SCALELIST
350
497
  3
ACAD_SECTIONVIEWSTYLE
350
4BC
  3
ACAD_TABLESTYLE
350
4B8
  3
ACAD_VISUALSTYLE
350
47E
  3
ACDB_RECOMPOSE_DATA
350
4F5
  3
AcDbVariableDictionary
350
4E8
  3
DWGPROPS
350
4F6
  0
DICTIONARY
  5
4DE
330
4A9
100
AcDbDictionary
280
     1
281
     1
  3
ADSK_XREC_LAYER_RECONCILED
360
4DF
  0
DICTIONARY
  5
4E0
330
4C8
100
AcDbDictionary
280
     1
281
     1
  3
ADSK_XREC_LAYER_RECONCILED
360
4E1
  0
DICTIONARY
  5
4E2
330
4D5
100
AcDbDictionary
280
     1
281
     1
  3
ADSK_XREC_LAYER_RECONCILED
360
4E3
  0
DICTIONARY
  5
4E4
330
4D6
100
AcDbDictionary
280
     1
281
     1
  3
ADSK_XREC_LAYER_RECONCILED
360
4E5
  0
DICTIONARY
  5
4E6
330
4D7
100
AcDbDictionary
280
     1
281
     1
  3
ADSK_XREC_LAYER_RECONCILED
360
4E7
  0
XRECORD
  5
4DD
102
{ACAD_REACTORS
330
461
102
}
330
461
100
AcDbXrecord
280
     1
300
ACDLT
300
2017
300
ACDLT_F_S
  0
DICTIONARY
  5
4B7
102
{ACAD_REACTORS
330
461
102
}
330
461
100
AcDbDictionary
281
     1
  0
DICTIONARY
  5
4BE
102
{ACAD_REACTORS
330
461
102
}
330
461
100
AcDbDictionary
281
     1
  3
Imperial24
350
4BF
  0
DICTIONARY
  5
462
102
{ACAD_REACTORS
330
461
102
}
330
461
100
AcDbDictionary
281
     1
  0
DICTIONARY
  5
4B6
102
{ACAD_REACTORS
330
461
102
}
330
461
100
AcDbDictionary
281
     1
  3
Model
350
4C7
  3
レイアウト1
350
4C3
  0
DICTIONARY
  5
465
102
{ACAD_REACTORS
330
461
102
}
330
461
100
AcDbDictionary
281
     1
  3
ByBlock
350
46E
  3
ByLayer
350
466
  3
Global
350
476
  0
DICTIONARY
  5
4BA
102
{ACAD_REACTORS
330
461
102
}
330
461
100
AcDbDictionary
281
     1
  3
Standard
350
4BB
  0
DICTIONARY
  5
4B3
102
{ACAD_REACTORS
330
461
102
}
330
461
100
AcDbDictionary
281
     1
  3
Standard
350
4B4
  0
DICTIONARY
  5
4B5
102
{ACAD_REACTORS
330
461
102
}
330
461
100
AcDbDictionary
281
     1
  0
ACDBDICTIONARYWDFLT
  5
463
102
{ACAD_REACTORS
330
461
102
}
330
461
100
AcDbDictionary
281
     1
  3
Normal
350
464
100
AcDbDictionaryWithDefault
340
464
  0
DICTIONARY
  5
497
102
{ACAD_REACTORS
330
461
102
}
330
461
100
AcDbDictionary
281
     1
  3
A0
350
498
  3
A1
350
499
  3
A2
350
49A
  3
A3
350
49B
  3
A4
350
49C
  3
A5
350
49D
  3
A6
350
49E
  3
A7
350
49F
  3
A8
350
4A0
  3
A9
350
4A1
  3
B0
350
4A2
  3
B1
350
4A3
  3
B2
350
4A4
  3
B3
350
4A5
  3
B4
350
4A6
  3
B5
350
4A7
  3
B6
350
4A8
  0
DICTIONARY
  5
4BC
102
{ACAD_REACTORS
330
461
102
}
330
461
100
AcDbDictionary
281
     1
  3
Imperial24
350
4BD
  0
DICTIONARY
  5
4B8
102
{ACAD_REACTORS
330
461
102
}
330
461
100
AcDbDictionary
281
     1
  3
Standard
350
4B9
  0
DICTIONARY
  5
47E
102
{ACAD_REACTORS
330
461
102
}
330
461
100
AcDbDictionary
281
     1
  3
2dWireframe
350
484
  3
Basic
350
483
  3
Brighten
350
48A
  3
ColorChange
350
48E
  3
Conceptual
350
487
  3
Dim
350
489
  3
EdgeColorOff
350
496
  3
Facepattern
350
48D
  3
Flat
350
47F
  3
FlatWithEdges
350
480
  3
Gouraud
350
481
  3
GouraudWithEdges
350
482
  3
Hidden
350
486
  3
JitterOff
350
494
  3
Linepattern
350
48C
  3
OverhangOff
350
495
  3
Realistic
350
488
  3
Shaded
350
493
  3
Shaded with edges
350
492
  3
Shades of Gray
350
48F
  3
Sketchy
350
490
  3
Thicken
350
48B
  3
Wireframe
350
485
  3
X-Ray
350
491
  0
XRECORD
  5
4F5
102
{ACAD_REACTORS
330
461
102
}
330
461
100
AcDbXrecord
280
     1
 90
        1
330
4B9
  0
DICTIONARY
  5
4E8
102
{ACAD_REACTORS
330
461
102
}
330
461
100
AcDbDictionary
281
     1
  3
CANNOSCALE
350
4ED
  3
CMLEADERSTYLE
350
4EA
  3
CTABLESTYLE
350
4E9
  3
CVIEWDETAILSTYLE
350
4EB
  3
CVIEWSECTIONSTYLE
350
4EC
  3
DIMASSOC
350
4F0
  3
INDEXCTL
350
4EF
  3
SORTENTS
350
4EE
  3
XCLIPFRAME
350
4F1
  0
XRECORD
  5
4F6
102
{ACAD_REACTORS
330
461
102
}
330
461
100
AcDbXrecord
280
     1
  1
DWGPROPS COOKIE
  2

  3

  4

  6

  7

  8
sasaki_n
  9

300
=
301
=
302
=
303
=
304
=
305
=
306
=
307
=
308
=
309
=
 40
0.0003472222222222
 41
2457812.596539352
 42
2457812.671527778
  1

 90
        0
  0
XRECORD
  5
4DF
102
{ACAD_REACTORS
330
4DE
102
}
330
4DE
100
AcDbXrecord
280
     1
290
     1
  0
XRECORD
  5
4E1
102
{ACAD_REACTORS
330
4E0
102
}
330
4E0
100
AcDbXrecord
280
     1
290
     1
  0
XRECORD
  5
4E3
102
{ACAD_REACTORS
330
4E2
102
}
330
4E2
100
AcDbXrecord
280
     1
290
     1
  0
XRECORD
  5
4E5
102
{ACAD_REACTORS
330
4E4
102
}
330
4E4
100
AcDbXrecord
280
     1
290
     1
  0
XRECORD
  5
4E7
102
{ACAD_REACTORS
330
4E6
102
}
330
4E6
100
AcDbXrecord
280
     1
290
     1
  0
ACDBDETAILVIEWSTYLE
  5
4BF
102
{ACAD_XDICTIONARY
360
52E
102
}
102
{ACAD_REACTORS
330
4BE
102
}
330
4BE
100
AcDbModelDocViewStyle
 70
     0
  3
Imperial24
290
     0
100
AcDbDetailViewStyle
 70
     0
 71
     0
 90
        3
 71
     1
340
4AA
 40
0.24
340
0
 40
0.24
300

 40
0.36
280
     3
 71
     2
340
4B1
 90
       25
 71
     3
340
4AA
 40
0.24
 90
        1
 40
0.75
 90
        1
300
%<\AcVar ViewType \f "%tc1">% %<\AcVar ViewDetailId>%\PSCALE %<\AcVar ViewScale \f "%sn">%
 71
     4
340
4B1
 90
       25
340
4B1
 90
       25
280
     0
  0
LAYOUT
  5
4C7
102
{ACAD_XDICTIONARY
360
532
102
}
102
{ACAD_REACTORS
330
4B6
102
}
330
4B6
100
AcDbPlotSettings
  1

  2
DocuPrint 3000-2
  4

  6

 40
0.0
 41
0.0
 42
0.0
 43
0.0
 44
0.0
 45
0.0
 46
0.0
 47
0.0
 48
0.0
 49
0.0
140
0.0
141
0.0
142
1.0
143
1.0
 70
  1712
 72
     0
 73
     0
 74
     0
  7

 75
     0
147
1.0
148
0.0
149
0.0
100
AcDbLayout
  1
Model
 70
     1
 71
     0
 10
0.0
 20
0.0
 11
12.0
 21
9.0
 12
0.0
 22
0.0
 32
0.0
 14
0.0
 24
0.0
 34
0.0
 15
0.0
 25
0.0
 35
0.0
146
0.0
 13
0.0
 23
0.0
 33
0.0
 16
1.0
 26
0.0
 36
0.0
 17
0.0
 27
1.0
 37
0.0
 76
     0
330
4C4
331
4C9
  0
LAYOUT
  5
4C3
102
{ACAD_XDICTIONARY
360
530
102
}
102
{ACAD_REACTORS
330
4B6
102
}
330
4B6
100
AcDbPlotSettings
  1

  2
DocuPrint 3000-2
  4

  6

 40
0.0
 41
0.0
 42
0.0
 43
0.0
 44
0.0
 45
0.0
 46
0.0
 47
0.0
 48
0.0
 49
0.0
140
0.0
141
0.0
142
1.0
143
1.0
 70
   688
 72
     0
 73
     0
 74
     5
  7

 75
    16
147
1.0
148
0.0
149
0.0
100
AcDbLayout
  1
レイアウト1
 70
     0
 71
     1
 10
0.0
 20
0.0
 11
12.0
 21
9.0
 12
0.0
 22
0.0
 32
0.0
 14
1.000000000000000E+20
 24
1.000000000000000E+20
 34
1.000000000000000E+20
 15
-1.000000000000000E+20
 25
-1.000000000000000E+20
 35
-1.000000000000000E+20
146
0.0
 13
0.0
 23
0.0
 33
0.0
 16
1.0
 26
0.0
 36
0.0
 17
0.0
 27
1.0
 37
0.0
 76
     0
330
4C0
  0
MATERIAL
  5
46E
102
{ACAD_XDICTIONARY
360
46F
102
}
102
{ACAD_REACTORS
330
465
102
}
330
465
100
AcDbMaterial
  1
ByBlock
 72
     0
 43
0.0208333333333333
 43
0.0
 43
0.0
 43
0.0
 43
0.0
 43
0.0208333333333333
 43
0.0
 43
0.0
 43
0.0
 43
0.0
 43
1.0
 43
0.0
 43
0.0
 43
0.0
 43
0.0
 43
1.0
 77
     0
 47
0.0208333333333333
 47
0.0
 47
0.0
 47
0.0
 47
0.0
 47
0.0208333333333333
 47
0.0
 47
0.0
 47
0.0
 47
0.0
 47
1.0
 47
0.0
 47
0.0
 47
0.0
 47
0.0
 47
1.0
171
     0
 49
0.0208333333333333
 49
0.0
 49
0.0
 49
0.0
 49
0.0
 49
0.0208333333333333
 49
0.0
 49
0.0
 49
0.0
 49
0.0
 49
1.0
 49
0.0
 49
0.0
 49
0.0
 49
0.0
 49
1.0
175
     0
142
0.0208333333333333
142
0.0
142
0.0
142
0.0
142
0.0
142
0.0208333333333333
142
0.0
142
0.0
142
0.0
142
0.0
142
1.0
142
0.0
142
0.0
142
0.0
142
0.0
142
1.0
179
     0
144
0.0208333333333333
144
0.0
144
0.0
144
0.0
144
0.0
144
0.0208333333333333
144
0.0
144
0.0
144
0.0
144
0.0
144
1.0
144
0.0
144
0.0
144
0.0
144
0.0
144
1.0
147
0.0208333333333333
147
0.0
147
0.0
147
0.0
147
0.0
147
0.0208333333333333
147
0.0
147
0.0
147
0.0
147
0.0
147
1.0
147
0.0
147
0.0
147
0.0
147
0.0
147
1.0
  0
MATERIAL
  5
466
102
{ACAD_XDICTIONARY
360
467
102
}
102
{ACAD_REACTORS
330
465
102
}
330
465
100
AcDbMaterial
  1
ByLayer
 72
     0
 43
0.0208333333333333
 43
0.0
 43
0.0
 43
0.0
 43
0.0
 43
0.0208333333333333
 43
0.0
 43
0.0
 43
0.0
 43
0.0
 43
1.0
 43
0.0
 43
0.0
 43
0.0
 43
0.0
 43
1.0
 77
     0
 47
0.0208333333333333
 47
0.0
 47
0.0
 47
0.0
 47
0.0
 47
0.0208333333333333
 47
0.0
 47
0.0
 47
0.0
 47
0.0
 47
1.0
 47
0.0
 47
0.0
 47
0.0
 47
0.0
 47
1.0
171
     0
 49
0.0208333333333333
 49
0.0
 49
0.0
 49
0.0
 49
0.0
 49
0.0208333333333333
 49
0.0
 49
0.0
 49
0.0
 49
0.0
 49
1.0
 49
0.0
 49
0.0
 49
0.0
 49
0.0
 49
1.0
175
     0
142
0.0208333333333333
142
0.0
142
0.0
142
0.0
142
0.0
142
0.0208333333333333
142
0.0
142
0.0
142
0.0
142
0.0
142
1.0
142
0.0
142
0.0
142
0.0
142
0.0
142
1.0
179
     0
144
0.0208333333333333
144
0.0
144
0.0
144
0.0
144
0.0
144
0.0208333333333333
144
0.0
144
0.0
144
0.0
144
0.0
144
1.0
144
0.0
144
0.0
144
0.0
144
0.0
144
1.0
147
0.0208333333333333
147
0.0
147
0.0
147
0.0
147
0.0
147
0.0208333333333333
147
0.0
147
0.0
147
0.0
147
0.0
147
1.0
147
0.0
147
0.0
147
0.0
147
0.0
147
1.0
  0
MATERIAL
  5
476
102
{ACAD_XDICTIONARY
360
477
102
}
102
{ACAD_REACTORS
330
465
102
}
330
465
100
AcDbMaterial
  1
Global
 72
     0
 43
0.0208333333333333
 43
0.0
 43
0.0
 43
0.0
 43
0.0
 43
0.0208333333333333
 43
0.0
 43
0.0
 43
0.0
 43
0.0
 43
1.0
 43
0.0
 43
0.0
 43
0.0
 43
0.0
 43
1.0
 77
     0
 47
0.0208333333333333
 47
0.0
 47
0.0
 47
0.0
 47
0.0
 47
0.0208333333333333
 47
0.0
 47
0.0
 47
0.0
 47
0.0
 47
1.0
 47
0.0
 47
0.0
 47
0.0
 47
0.0
 47
1.0
171
     0
 49
0.0208333333333333
 49
0.0
 49
0.0
 49
0.0
 49
0.0
 49
0.0208333333333333
 49
0.0
 49
0.0
 49
0.0
 49
0.0
 49
1.0
 49
0.0
 49
0.0
 49
0.0
 49
0.0
 49
1.0
175
     0
142
0.0208333333333333
142
0.0
142
0.0
142
0.0
142
0.0
142
0.0208333333333333
142
0.0
142
0.0
142
0.0
142
0.0
142
1.0
142
0.0
142
0.0
142
0.0
142
0.0
142
1.0
179
     0
144
0.0208333333333333
144
0.0
144
0.0
144
0.0
144
0.0
144
0.0208333333333333
144
0.0
144
0.0
144
0.0
144
0.0
144
1.0
144
0.0
144
0.0
144
0.0
144
0.0
144
1.0
147
0.0208333333333333
147
0.0
147
0.0
147
0.0
147
0.0
147
0.0208333333333333
147
0.0
147
0.0
147
0.0
147
0.0
147
1.0
147
0.0
147
0.0
147
0.0
147
0.0
147
1.0
  0
MLEADERSTYLE
  5
4BB
102
{ACAD_REACTORS
330
4BA
102
}
330
4BA
100
AcDbMLeaderStyle
170
     2
171
     1
172
     0
 90
        2
 40
0.0
 41
0.0
173
     1
 91
-1056964608
340
4AF
 92
       -2
290
     1
 42
0.09
291
     1
 43
0.36
  3
Standard
 44
0.18
300

342
4AA
174
     1
178
     6
175
     1
176
     0
 93
-1056964608
 45
0.18
292
     0
297
     0
 46
0.18
 94
-1056964608
 47
1.0
 49
1.0
140
1.0
293
     1
141
0.0
294
     1
177
     0
142
1.0
295
     0
296
     0
143
0.125
1001
ACAD_MLEADERVER
1070
     2
  0
MLINESTYLE
  5
4B4
102
{ACAD_REACTORS
330
4B3
102
}
330
4B3
100
AcDbMlineStyle
  2
STANDARD
 70
     0
  3

 62
   256
 51
90.0
 52
90.0
 71
     2
 49
0.5
 62
   256
  6
BYLAYER
 49
-0.5
 62
   256
  6
BYLAYER
  0
ACDBPLACEHOLDER
  5
464
102
{ACAD_REACTORS
330
463
102
}
330
463
  0
SCALE
  5
498
102
{ACAD_REACTORS
330
497
102
}
330
497
100
AcDbScale
 70
     0
300
1:1
140
1.0
141
1.0
290
     1
  0
SCALE
  5
499
102
{ACAD_REACTORS
330
497
102
}
330
497
100
AcDbScale
 70
     0
300
1/128" = 1'-0"
140
0.0078125
141
12.0
290
     0
  0
SCALE
  5
49A
102
{ACAD_REACTORS
330
497
102
}
330
497
100
AcDbScale
 70
     0
300
1/64" = 1'-0"
140
0.015625
141
12.0
290
     0
  0
SCALE
  5
49B
102
{ACAD_REACTORS
330
497
102
}
330
497
100
AcDbScale
 70
     0
300
1/32" = 1'-0"
140
0.03125
141
12.0
290
     0
  0
SCALE
  5
49C
102
{ACAD_REACTORS
330
497
102
}
330
497
100
AcDbScale
 70
     0
300
1/16" = 1'-0"
140
0.0625
141
12.0
290
     0
  0
SCALE
  5
49D
102
{ACAD_REACTORS
330
497
102
}
330
497
100
AcDbScale
 70
     0
300
3/32" = 1'-0"
140
0.09375
141
12.0
290
     0
  0
SCALE
  5
49E
102
{ACAD_REACTORS
330
497
102
}
330
497
100
AcDbScale
 70
     0
300
1/8" = 1'-0"
140
0.125
141
12.0
290
     0
  0
SCALE
  5
49F
102
{ACAD_REACTORS
330
497
102
}
330
497
100
AcDbScale
 70
     0
300
3/16" = 1'-0"
140
0.1875
141
12.0
290
     0
  0
SCALE
  5
4A0
102
{ACAD_REACTORS
330
497
102
}
330
497
100
AcDbScale
 70
     0
300
1/4" = 1'-0"
140
0.25
141
12.0
290
     0
  0
SCALE
  5
4A1
102
{ACAD_REACTORS
330
497
102
}
330
497
100
AcDbScale
 70
     0
300
3/8" = 1'-0"
140
0.375
141
12.0
290
     0
  0
SCALE
  5
4A2
102
{ACAD_REACTORS
330
497
102
}
330
497
100
AcDbScale
 70
     0
300
1/2" = 1'-0"
140
0.5
141
12.0
290
     0
  0
SCALE
  5
4A3
102
{ACAD_REACTORS
330
497
102
}
330
497
100
AcDbScale
 70
     0
300
3/4" = 1'-0"
140
0.75
141
12.0
290
     0
  0
SCALE
  5
4A4
102
{ACAD_REACTORS
330
497
102
}
330
497
100
AcDbScale
 70
     0
300
1" = 1'-0"
140
1.0
141
12.0
290
     0
  0
SCALE
  5
4A5
102
{ACAD_REACTORS
330
497
102
}
330
497
100
AcDbScale
 70
     0
300
1-1/2" = 1'-0"
140
1.5
141
12.0
290
     0
  0
SCALE
  5
4A6
102
{ACAD_REACTORS
330
497
102
}
330
497
100
AcDbScale
 70
     0
300
3" = 1'-0"
140
3.0
141
12.0
290
     0
  0
SCALE
  5
4A7
102
{ACAD_REACTORS
330
497
102
}
330
497
100
AcDbScale
 70
     0
300
6" = 1'-0"
140
6.0
141
12.0
290
     0
  0
SCALE
  5
4A8
102
{ACAD_REACTORS
330
497
102
}
330
497
100
AcDbScale
 70
     0
300
1'-0" = 1'-0"
140
12.0
141
12.0
290
     0
  0
ACDBSECTIONVIEWSTYLE
  5
4BD
102
{ACAD_XDICTIONARY
360
52C
102
}
102
{ACAD_REACTORS
330
4BC
102
}
330
4BC
100
AcDbModelDocViewStyle
 70
     0
  3
Imperial24
290
     0
100
AcDbSectionViewStyle
 70
     0
 71
     0
 90
       78
 71
     1
340
4AA
 40
0.24
340
0
340
0
 40
0.24
300
I, O, Q, S, X, Z
 40
0.48
 90
        3
 40
0.18
 90
        1
 71
     2
340
4B1
 90
       25
340
4B1
 90
       50
 40
0.24
 40
0.0
 40
0.24
 71
     3
340
4AA
 40
0.24
 90
        1
 40
0.75
 90
        1
300
%<\AcVar ViewType \f "%tc1">% %<\AcVar ViewSectionStartId>%-%<\AcVar ViewSectionEndId>%\PSCALE %<\AcVar ViewScale \f "%sn">%
 71
     4
300
ANSI31
 40
1.0
 90
        0
290
     0
290
     0
 90
        6
 40
0.0
 40
1.570796326794896
 40
0.2617993877991494
 40
1.308996938995747
 40
-0.2617993877991494
 40
1.832595714594046
  0
TABLESTYLE
  5
4B9
102
{ACAD_XDICTIONARY
360
4F3
102
}
102
{ACAD_REACTORS
330
4B8
102
}
330
4B8
100
AcDbTableStyle
  3
Standard
 70
     0
 71
     0
 40
0.06
 41
0.06
280
     0
281
     0
  7
STANDARD
140
0.18
170
     2
 62
     0
 63
     7
283
     0
274
    -2
284
     1
 64
     0
275
    -2
285
     1
 65
     0
276
    -2
286
     1
 66
     0
277
    -2
287
     1
 67
     0
278
    -2
288
     1
 68
     0
279
    -2
289
     1
 69
     0
  7
STANDARD
140
0.25
170
     5
 62
     0
 63
     7
283
     0
274
    -2
284
     1
 64
     0
275
    -2
285
     1
 65
     0
276
    -2
286
     1
 66
     0
277
    -2
287
     1
 67
     0
278
    -2
288
     1
 68
     0
279
    -2
289
     1
 69
     0
  7
STANDARD
140
0.18
170
     5
 62
     0
 63
     7
283
     0
274
    -2
284
     1
 64
     0
275
    -2
285
     1
 65
     0
276
    -2
286
     1
 66
     0
277
    -2
287
     1
 67
     0
278
    -2
288
     1
 68
     0
279
    -2
289
     1
 69
     0
  0
VISUALSTYLE
  5
484
102
{ACAD_XDICTIONARY
360
504
102
}
102
{ACAD_REACTORS
330
47E
102
}
330
47E
100
AcDbVisualStyle
  2
2dWireframe
 70
     4
 71
     0
 72
     2
 73
     0
 90
        0
 40
-0.6
 41
-30.0
 62
     5
 63
     7
 74
     1
 91
        4
 64
     7
 65
   257
 75
     1
175
     1
 42
1.0
 92
        0
 66
   257
 43
1.0
 76
     1
 77
     6
 78
     2
 67
     7
 79
     5
170
     0
171
     0
290
     0
174
     0
 93
        1
 44
0.0
173
     0
291
     0
 45
0.0
1001
ACAD
1000
AcDbSavedByObjectVersion
1070
     0
  0
VISUALSTYLE
  5
483
102
{ACAD_XDICTIONARY
360
502
102
}
102
{ACAD_REACTORS
330
47E
102
}
330
47E
100
AcDbVisualStyle
  2
Basic
 70
     7
 71
     1
 72
     0
 73
     1
 90
        0
 40
-0.6
 41
-30.0
 62
     5
 63
     7
 74
     0
 91
        4
 64
     7
 65
   257
 75
     1
175
     1
 42
1.0
 92
        8
 66
     7
 43
1.0
 76
     1
 77
     6
 78
     2
 67
     7
 79
     5
170
     0
171
     0
290
     0
174
     0
 93
        1
 44
0.0
173
     0
291
     1
 45
0.0
1001
ACAD
1000
AcDbSavedByObjectVersion
1070
     0
  0
VISUALSTYLE
  5
48A
102
{ACAD_XDICTIONARY
360
510
102
}
102
{ACAD_REACTORS
330
47E
102
}
330
47E
100
AcDbVisualStyle
  2
Brighten
 70
    12
 71
     2
 72
     2
 73
     0
 90
        0
 40
-0.6
 41
-30.0
 62
     5
 63
     7
 74
     1
 91
        4
 64
     7
 65
   257
 75
     1
175
     1
 42
1.0
 92
        8
 66
     7
 43
1.0
 76
     1
 77
     6
 78
     2
 67
     7
 79
     5
170
     0
171
     0
290
     0
174
     0
 93
        1
 44
50.0
173
     0
291
     1
 45
0.0
1001
ACAD
1000
AcDbSavedByObjectVersion
1070
     0
  0
VISUALSTYLE
  5
48E
102
{ACAD_XDICTIONARY
360
518
102
}
102
{ACAD_REACTORS
330
47E
102
}
330
47E
100
AcDbVisualStyle
  2
ColorChange
 70
    16
 71
     2
 72
     2
 73
     3
 90
        0
 40
-0.6
 41
-30.0
 62
     5
 63
     8
 74
     1
 91
        4
 64
     7
 65
   257
 75
     1
175
     1
 42
1.0
 92
        8
 66
     8
 43
1.0
 76
     1
 77
     6
 78
     2
 67
     7
 79
     5
170
     0
171
     0
290
     0
174
     0
 93
        1
 44
0.0
173
     0
291
     1
 45
0.0
1001
ACAD
1000
AcDbSavedByObjectVersion
1070
     0
  0
VISUALSTYLE
  5
487
102
{ACAD_XDICTIONARY
360
50A
102
}
102
{ACAD_REACTORS
330
47E
102
}
330
47E
100
AcDbVisualStyle
  2
Conceptual
 70
     9
 71
     3
 72
     2
 73
     0
 90
        0
 40
-0.6
 41
-30.0
 62
     5
 63
     7
 74
     2
 91
        2
 64
     7
 65
   257
 75
     1
175
     1
 42
179.0
 92
        8
 66
     7
 43
1.0
 76
     1
 77
     6
 78
     2
 67
     7
 79
     3
170
     0
171
     0
290
     0
174
     0
 93
        1
 44
0.0
173
     0
291
     0
 45
0.0
1001
ACAD
1000
AcDbSavedByObjectVersion
1070
     0
  0
VISUALSTYLE
  5
489
102
{ACAD_XDICTIONARY
360
50E
102
}
102
{ACAD_REACTORS
330
47E
102
}
330
47E
100
AcDbVisualStyle
  2
Dim
 70
    11
 71
     2
 72
     2
 73
     0
 90
        0
 40
-0.6
 41
-30.0
 62
     5
 63
     7
 74
     1
 91
        4
 64
     7
 65
   257
 75
     1
175
     1
 42
1.0
 92
        8
 66
     7
 43
1.0
 76
     1
 77
     6
 78
     2
 67
     7
 79
     5
170
     0
171
     0
290
     0
174
     0
 93
        1
 44
-50.0
173
     0
291
     1
 45
0.0
1001
ACAD
1000
AcDbSavedByObjectVersion
1070
     0
  0
VISUALSTYLE
  5
496
102
{ACAD_XDICTIONARY
360
528
102
}
102
{ACAD_REACTORS
330
47E
102
}
330
47E
100
AcDbVisualStyle
  2
EdgeColorOff
 70
    22
 71
     2
 72
     2
 73
     0
 90
        0
 40
-0.6
 41
-30.0
 62
     5
 63
     7
 74
     1
 91
        4
 64
     7
 65
   257
 75
     1
175
     1
 42
1.0
 92
        8
 66
     7
 43
1.0
 76
     1
 77
     6
 78
     2
 67
     7
 79
     5
170
     0
171
     0
290
     0
174
     0
 93
        1
 44
0.0
173
     0
291
     1
 45
0.0
1001
ACAD
1000
AcDbSavedByObjectVersion
1070
     0
  0
VISUALSTYLE
  5
48D
102
{ACAD_XDICTIONARY
360
516
102
}
102
{ACAD_REACTORS
330
47E
102
}
330
47E
100
AcDbVisualStyle
  2
Facepattern
 70
    15
 71
     2
 72
     2
 73
     0
 90
        0
 40
-0.6
 41
-30.0
 62
     5
 63
     7
 74
     1
 91
        4
 64
     7
 65
   257
 75
     1
175
     1
 42
1.0
 92
        8
 66
     7
 43
1.0
 76
     1
 77
     6
 78
     2
 67
     7
 79
     5
170
     0
171
     0
290
     0
174
     0
 93
        1
 44
0.0
173
     0
291
     1
 45
0.0
1001
ACAD
1000
AcDbSavedByObjectVersion
1070
     0
  0
VISUALSTYLE
  5
47F
102
{ACAD_XDICTIONARY
360
4FA
102
}
102
{ACAD_REACTORS
330
47E
102
}
330
47E
100
AcDbVisualStyle
  2
Flat
 70
     0
 71
     2
 72
     1
 73
     1
 90
        2
 40
-0.6
 41
30.0
 62
     5
 63
     7
 74
     0
 91
        0
 64
     7
 65
   257
 75
     1
175
     1
 42
1.0
 92
        8
 66
     7
 43
1.0
 76
     1
 77
     6
 78
     2
 67
     7
 79
     5
170
     0
171
     0
290
     0
174
     0
 93
       13
 44
0.0
173
     0
291
     1
 45
0.0
1001
ACAD
1000
AcDbSavedByObjectVersion
1070
     0
  0
VISUALSTYLE
  5
480
102
{ACAD_XDICTIONARY
360
4FC
102
}
102
{ACAD_REACTORS
330
47E
102
}
330
47E
100
AcDbVisualStyle
  2
FlatWithEdges
 70
     1
 71
     2
 72
     1
 73
     1
 90
        2
 40
-0.6
 41
30.0
 62
     5
 63
     7
 74
     1
 91
        0
 64
     7
 65
   257
 75
     1
175
     1
 42
1.0
 92
        0
 66
   257
 43
1.0
 76
     1
 77
     6
 78
     2
 67
     7
 79
     5
170
     0
171
     0
290
     0
174
     0
 93
       13
 44
0.0
173
     0
291
     1
 45
0.0
1001
ACAD
1000
AcDbSavedByObjectVersion
1070
     0
  0
VISUALSTYLE
  5
481
102
{ACAD_XDICTIONARY
360
4FE
102
}
102
{ACAD_REACTORS
330
47E
102
}
330
47E
100
AcDbVisualStyle
  2
Gouraud
 70
     2
 71
     2
 72
     2
 73
     1
 90
        2
 40
-0.6
 41
30.0
 62
     5
 63
     7
 74
     0
 91
        0
 64
     7
 65
   257
 75
     1
175
     1
 42
1.0
 92
        0
 66
     7
 43
1.0
 76
     1
 77
     6
 78
     2
 67
     7
 79
     5
170
     0
171
     0
290
     0
174
     0
 93
       13
 44
0.0
173
     0
291
     1
 45
0.0
1001
ACAD
1000
AcDbSavedByObjectVersion
1070
     0
  0
VISUALSTYLE
  5
482
102
{ACAD_XDICTIONARY
360
500
102
}
102
{ACAD_REACTORS
330
47E
102
}
330
47E
100
AcDbVisualStyle
  2
GouraudWithEdges
 70
     3
 71
     2
 72
     2
 73
     1
 90
        2
 40
-0.6
 41
30.0
 62
     5
 63
     7
 74
     1
 91
        0
 64
     7
 65
   257
 75
     1
175
     1
 42
1.0
 92
        0
 66
   257
 43
1.0
 76
     1
 77
     6
 78
     2
 67
     7
 79
     5
170
     0
171
     0
290
     0
174
     0
 93
       13
 44
0.0
173
     0
291
     1
 45
0.0
1001
ACAD
1000
AcDbSavedByObjectVersion
1070
     0
  0
VISUALSTYLE
  5
486
102
{ACAD_XDICTIONARY
360
508
102
}
102
{ACAD_REACTORS
330
47E
102
}
330
47E
100
AcDbVisualStyle
  2
Hidden
 70
     6
 71
     1
 72
     2
 73
     2
 90
        0
 40
-0.6
 41
-30.0
 62
     5
 63
     7
 74
     2
 91
        2
 64
     7
 65
   257
 75
     2
175
     1
 42
40.0
 92
        0
 66
   257
 43
1.0
 76
     1
 77
     6
 78
     2
 67
     7
 79
     3
170
     0
171
     0
290
     0
174
     0
 93
        1
 44
0.0
173
     0
291
     0
 45
0.0
1001
ACAD
1000
AcDbSavedByObjectVersion
1070
     0
  0
VISUALSTYLE
  5
494
102
{ACAD_XDICTIONARY
360
524
102
}
102
{ACAD_REACTORS
330
47E
102
}
330
47E
100
AcDbVisualStyle
  2
JitterOff
 70
    20
 71
     2
 72
     2
 73
     0
 90
        0
 40
-0.6
 41
-30.0
 62
     5
 63
     7
 74
     1
 91
        4
 64
     7
 65
   257
 75
     1
175
     1
 42
1.0
 92
       10
 66
     7
 43
1.0
 76
     1
 77
     6
 78
     2
 67
     7
 79
     5
170
     0
171
     0
290
     0
174
     0
 93
        1
 44
0.0
173
     0
291
     1
 45
0.0
1001
ACAD
1000
AcDbSavedByObjectVersion
1070
     0
  0
VISUALSTYLE
  5
48C
102
{ACAD_XDICTIONARY
360
514
102
}
102
{ACAD_REACTORS
330
47E
102
}
330
47E
100
AcDbVisualStyle
  2
Linepattern
 70
    14
 71
     2
 72
     2
 73
     0
 90
        0
 40
-0.6
 41
-30.0
 62
     5
 63
     7
 74
     1
 91
        4
 64
     7
 65
   257
 75
     7
175
     7
 42
1.0
 92
        8
 66
     7
 43
1.0
 76
     1
 77
     6
 78
     2
 67
     7
 79
     5
170
     0
171
     0
290
     0
174
     0
 93
        1
 44
0.0
173
     0
291
     1
 45
0.0
1001
ACAD
1000
AcDbSavedByObjectVersion
1070
     0
  0
VISUALSTYLE
  5
495
102
{ACAD_XDICTIONARY
360
526
102
}
102
{ACAD_REACTORS
330
47E
102
}
330
47E
100
AcDbVisualStyle
  2
OverhangOff
 70
    21
 71
     2
 72
     2
 73
     0
 90
        0
 40
-0.6
 41
-30.0
 62
     5
 63
     7
 74
     1
 91
        4
 64
     7
 65
   257
 75
     1
175
     1
 42
1.0
 92
        9
 66
     7
 43
1.0
 76
     1
 77
     6
 78
     2
 67
     7
 79
     5
170
     0
171
     0
290
     0
174
     0
 93
        1
 44
0.0
173
     0
291
     1
 45
0.0
1001
ACAD
1000
AcDbSavedByObjectVersion
1070
     0
  0
VISUALSTYLE
  5
488
102
{ACAD_XDICTIONARY
360
50C
102
}
102
{ACAD_REACTORS
330
47E
102
}
330
47E
100
AcDbVisualStyle
  2
Realistic
 70
     8
 71
     2
 72
     3
 73
     0
 90
        2
 40
-0.6
 41
30.0
 62
     5
 63
     7
 74
     0
 91
        0
 64
     7
 65
   257
 75
     1
175
     1
 42
1.0
 92
        8
 66
   257
 43
1.0
 76
     1
 77
     6
 78
     2
 67
     7
 79
     3
170
     0
171
     0
290
     0
174
     0
 93
       13
 44
0.0
173
     0
291
     0
 45
0.0
1001
ACAD
1000
AcDbSavedByObjectVersion
1070
     0
  0
VISUALSTYLE
  5
493
102
{ACAD_XDICTIONARY
360
522
102
}
102
{ACAD_REACTORS
330
47E
102
}
330
47E
100
AcDbVisualStyle
  2
Shaded
 70
    27
 71
     2
 72
     2
 73
     1
 90
        2
 40
-0.6
 41
30.0
 62
     5
 63
     7
 74
     0
 91
        4
 64
     7
 65
   257
 75
     1
175
     1
 42
1.0
 92
        8
 66
   257
 43
1.0
 76
     1
 77
     6
 78
     2
 67
     8
 79
     3
170
     0
171
     0
290
     0
174
     0
 93
        5
 44
0.0
173
     0
291
     0
 45
0.0
1001
ACAD
1000
AcDbSavedByObjectVersion
1070
     0
  0
VISUALSTYLE
  5
492
102
{ACAD_XDICTIONARY
360
520
102
}
102
{ACAD_REACTORS
330
47E
102
}
330
47E
100
AcDbVisualStyle
  2
Shaded with edges
 70
    26
 71
     2
 72
     2
 73
     1
 90
        2
 40
-0.6
 41
30.0
 62
     5
 63
     7
 74
     1
 91
        2
 64
     7
 65
   257
 75
     2
175
     1
 42
1.0
 92
        8
 66
   257
 43
1.0
 76
     1
 77
     6
 78
     2
 67
     7
 79
     3
170
     0
171
     0
290
     0
174
     0
 93
        5
 44
0.0
173
     0
291
     0
 45
0.0
1001
ACAD
1000
AcDbSavedByObjectVersion
1070
     0
  0
VISUALSTYLE
  5
48F
102
{ACAD_XDICTIONARY
360
51A
102
}
102
{ACAD_REACTORS
330
47E
102
}
330
47E
100
AcDbVisualStyle
  2
Shades of Gray
 70
    23
 71
     2
 72
     2
 73
     3
 90
        0
 40
-0.6
 41
-30.0
 62
     5
 63
     7
 74
     2
 91
        2
 64
     7
 65
     7
 75
     1
175
     1
 42
40.0
 92
        8
 66
     7
 43
1.0
 76
     1
 77
     6
 78
     2
 67
     7
 79
     3
170
     0
171
     0
290
     0
174
     0
 93
        1
 44
0.0
173
     0
291
     0
 45
0.0
1001
ACAD
1000
AcDbSavedByObjectVersion
1070
     0
  0
VISUALSTYLE
  5
490
102
{ACAD_XDICTIONARY
360
51C
102
}
102
{ACAD_REACTORS
330
47E
102
}
330
47E
100
AcDbVisualStyle
  2
Sketchy
 70
    24
 71
     1
 72
     2
 73
     2
 90
        0
 40
-0.6
 41
-30.0
 62
     5
 63
     7
 74
     2
 91
        2
 64
     7
 65
     7
 75
     1
175
     1
 42
40.0
 92
       11
 66
     7
 43
1.0
 76
     1
 77
     6
 78
     2
 67
     7
 79
     6
170
     0
171
     0
290
     0
174
     0
 93
        1
 44
0.0
173
     0
291
     0
 45
0.0
1001
ACAD
1000
AcDbSavedByObjectVersion
1070
     0
  0
VISUALSTYLE
  5
48B
102
{ACAD_XDICTIONARY
360
512
102
}
102
{ACAD_REACTORS
330
47E
102
}
330
47E
100
AcDbVisualStyle
  2
Thicken
 70
    13
 71
     2
 72
     2
 73
     0
 90
        0
 40
-0.6
 41
-30.0
 62
     5
 63
     7
 74
     1
 91
        4
 64
     7
 65
   257
 75
     1
175
     1
 42
1.0
 92
       12
 66
     7
 43
1.0
 76
     1
 77
     6
 78
     2
 67
     7
 79
     5
170
     0
171
     0
290
     0
174
     0
 93
        1
 44
0.0
173
     0
291
     1
 45
0.0
1001
ACAD
1000
AcDbSavedByObjectVersion
1070
     0
  0
VISUALSTYLE
  5
485
102
{ACAD_XDICTIONARY
360
506
102
}
102
{ACAD_REACTORS
330
47E
102
}
330
47E
100
AcDbVisualStyle
  2
Wireframe
 70
     5
 71
     0
 72
     2
 73
     0
 90
        0
 40
-0.6
 41
-30.0
 62
     5
 63
     7
 74
     1
 91
        4
 64
     7
 65
   257
 75
     1
175
     1
 42
1.0
 92
        0
 66
   257
 43
1.0
 76
     1
 77
     6
 78
     2
 67
     7
 79
     3
170
     0
171
     0
290
     0
174
     0
 93
        1
 44
0.0
173
     0
291
     0
 45
0.0
1001
ACAD
1000
AcDbSavedByObjectVersion
1070
     0
  0
VISUALSTYLE
  5
491
102
{ACAD_XDICTIONARY
360
51E
102
}
102
{ACAD_REACTORS
330
47E
102
}
330
47E
100
AcDbVisualStyle
  2
X-Ray
 70
    25
 71
     2
 72
     2
 73
     1
 90
        1
 40
0.5
 41
-30.0
 62
     5
 63
     7
 74
     1
 91
        0
 64
     7
 65
   257
 75
     1
175
     1
 42
1.0
 92
        8
 66
     7
 43
1.0
 76
     1
 77
     6
 78
     2
 67
     7
 79
     3
170
     0
171
     0
290
     0
174
     0
 93
       13
 44
0.0
173
     0
291
     0
 45
0.0
1001
ACAD
1000
AcDbSavedByObjectVersion
1070
     0
  0
DICTIONARYVAR
  5
4ED
102
{ACAD_REACTORS
330
4E8
102
}
330
4E8
100
DictionaryVariables
280
     0
  1
1:1
  0
DICTIONARYVAR
  5
4EA
102
{ACAD_REACTORS
330
4E8
102
}
330
4E8
100
DictionaryVariables
280
     0
  1
STANDARD
  0
DICTIONARYVAR
  5
4E9
102
{ACAD_REACTORS
330
4E8
102
}
330
4E8
100
DictionaryVariables
280
     0
  1
STANDARD
  0
DICTIONARYVAR
  5
4EB
102
{ACAD_REACTORS
330
4E8
102
}
330
4E8
100
DictionaryVariables
280
     0
  1
Imperial24
  0
DICTIONARYVAR
  5
4EC
102
{ACAD_REACTORS
330
4E8
102
}
330
4E8
100
DictionaryVariables
280
     0
  1
Imperial24
  0
DICTIONARYVAR
  5
4F0
102
{ACAD_REACTORS
330
4E8
102
}
330
4E8
100
DictionaryVariables
280
     0
  1
1
  0
DICTIONARYVAR
  5
4EF
102
{ACAD_REACTORS
330
4E8
102
}
330
4E8
100
DictionaryVariables
280
     0
  1
0
  0
DICTIONARYVAR
  5
4EE
102
{ACAD_REACTORS
330
4E8
102
}
330
4E8
100
DictionaryVariables
280
     0
  1
127
  0
DICTIONARYVAR
  5
4F1
102
{ACAD_REACTORS
330
4E8
102
}
330
4E8
100
DictionaryVariables
280
     0
  1
2
  0
DICTIONARY
  5
52E
330
4BF
100
AcDbDictionary
280
     1
281
     1
  3
ACAD_XREC_ROUNDTRIP
360
52F
  0
DICTIONARY
  5
532
330
4C7
100
AcDbDictionary
280
     1
281
     1
  3
ACAD_XREC_ROUNDTRIP
360
533
  0
DICTIONARY
  5
530
330
4C3
100
AcDbDictionary
280
     1
281
     1
  3
ACAD_XREC_ROUNDTRIP
360
531
  0
DICTIONARY
  5
46F
330
46E
100
AcDbDictionary
280
     1
281
     1
  3
ACAD_XREC_ROUNDTRIP
360
4F8
  3
BUMPTILE
360
471
  3
DIFFUSETILE
360
470
  3
OPACITYTILE
360
474
  3
REFLECTIONTILE
360
473
  3
REFRACTIONTILE
360
475
  3
SPECULARTILE
360
472
  0
DICTIONARY
  5
467
330
466
100
AcDbDictionary
280
     1
281
     1
  3
ACAD_XREC_ROUNDTRIP
360
4F7
  3
BUMPTILE
360
469
  3
DIFFUSETILE
360
468
  3
OPACITYTILE
360
46C
  3
REFLECTIONTILE
360
46B
  3
REFRACTIONTILE
360
46D
  3
SPECULARTILE
360
46A
  0
DICTIONARY
  5
477
330
476
100
AcDbDictionary
280
     1
281
     1
  3
ACAD_XREC_ROUNDTRIP
360
4F9
  3
BUMPTILE
360
479
  3
DIFFUSETILE
360
478
  3
OPACITYTILE
360
47C
  3
REFLECTIONTILE
360
47B
  3
REFRACTIONTILE
360
47D
  3
SPECULARTILE
360
47A
  0
DICTIONARY
  5
52C
330
4BD
100
AcDbDictionary
280
     1
281
     1
  3
ACAD_XREC_ROUNDTRIP
360
52D
  0
DICTIONARY
  5
4F3
330
4B9
100
AcDbDictionary
280
     1
281
     1
  3
ACAD_ROUNDTRIP_2008_TABLESTYLE_CELLSTYLEMAP
360
4F4
  3
ACAD_XREC_ROUNDTRIP
360
52A
  0
DICTIONARY
  5
504
330
484
100
AcDbDictionary
280
     1
281
     1
  3
ACAD_XREC_ROUNDTRIP
360
505
  0
DICTIONARY
  5
502
330
483
100
AcDbDictionary
280
     1
281
     1
  3
ACAD_XREC_ROUNDTRIP
360
503
  0
DICTIONARY
  5
510
330
48A
100
AcDbDictionary
280
     1
281
     1
  3
ACAD_XREC_ROUNDTRIP
360
511
  0
DICTIONARY
  5
518
330
48E
100
AcDbDictionary
280
     1
281
     1
  3
ACAD_XREC_ROUNDTRIP
360
519
  0
DICTIONARY
  5
50A
330
487
100
AcDbDictionary
280
     1
281
     1
  3
ACAD_XREC_ROUNDTRIP
360
50B
  0
DICTIONARY
  5
50E
330
489
100
AcDbDictionary
280
     1
281
     1
  3
ACAD_XREC_ROUNDTRIP
360
50F
  0
DICTIONARY
  5
528
330
496
100
AcDbDictionary
280
     1
281
     1
  3
ACAD_XREC_ROUNDTRIP
360
529
  0
DICTIONARY
  5
516
330
48D
100
AcDbDictionary
280
     1
281
     1
  3
ACAD_XREC_ROUNDTRIP
360
517
  0
DICTIONARY
  5
4FA
330
47F
100
AcDbDictionary
280
     1
281
     1
  3
ACAD_XREC_ROUNDTRIP
360
4FB
  0
DICTIONARY
  5
4FC
330
480
100
AcDbDictionary
280
     1
281
     1
  3
ACAD_XREC_ROUNDTRIP
360
4FD
  0
DICTIONARY
  5
4FE
330
481
100
AcDbDictionary
280
     1
281
     1
  3
ACAD_XREC_ROUNDTRIP
360
4FF
  0
DICTIONARY
  5
500
330
482
100
AcDbDictionary
280
     1
281
     1
  3
ACAD_XREC_ROUNDTRIP
360
501
  0
DICTIONARY
  5
508
330
486
100
AcDbDictionary
280
     1
281
     1
  3
ACAD_XREC_ROUNDTRIP
360
509
  0
DICTIONARY
  5
524
330
494
100
AcDbDictionary
280
     1
281
     1
  3
ACAD_XREC_ROUNDTRIP
360
525
  0
DICTIONARY
  5
514
330
48C
100
AcDbDictionary
280
     1
281
     1
  3
ACAD_XREC_ROUNDTRIP
360
515
  0
DICTIONARY
  5
526
330
495
100
AcDbDictionary
280
     1
281
     1
  3
ACAD_XREC_ROUNDTRIP
360
527
  0
DICTIONARY
  5
50C
330
488
100
AcDbDictionary
280
     1
281
     1
  3
ACAD_XREC_ROUNDTRIP
360
50D
  0
DICTIONARY
  5
522
330
493
100
AcDbDictionary
280
     1
281
     1
  3
ACAD_XREC_ROUNDTRIP
360
523
  0
DICTIONARY
  5
520
330
492
100
AcDbDictionary
280
     1
281
     1
  3
ACAD_XREC_ROUNDTRIP
360
521
  0
DICTIONARY
  5
51A
330
48F
100
AcDbDictionary
280
     1
281
     1
  3
ACAD_XREC_ROUNDTRIP
360
51B
  0
DICTIONARY
  5
51C
330
490
100
AcDbDictionary
280
     1
281
     1
  3
ACAD_XREC_ROUNDTRIP
360
51D
  0
DICTIONARY
  5
512
330
48B
100
AcDbDictionary
280
     1
281
     1
  3
ACAD_XREC_ROUNDTRIP
360
513
  0
DICTIONARY
  5
506
330
485
100
AcDbDictionary
280
     1
281
     1
  3
ACAD_XREC_ROUNDTRIP
360
507
  0
DICTIONARY
  5
51E
330
491
100
AcDbDictionary
280
     1
281
     1
  3
ACAD_XREC_ROUNDTRIP
360
51F
  0
XRECORD
  5
52F
102
{ACAD_REACTORS
330
52E
102
}
330
52E
100
AcDbXrecord
280
     1
102
DISPLAYNAME
  1
Imperial24
102
FLAGS
 90
        0
  0
XRECORD
  5
533
102
{ACAD_REACTORS
330
532
102
}
330
532
100
AcDbXrecord
280
     1
102
SHADEPLOT
 70
     0
102
SHADEPLOTRESLEVEL
 70
     2
102
SHADEPLOTCUSTOMDPI
 70
   300
  0
XRECORD
  5
531
102
{ACAD_REACTORS
330
530
102
}
330
530
100
AcDbXrecord
280
     1
102
SHADEPLOT
 70
     0
102
SHADEPLOTRESLEVEL
 70
     2
102
SHADEPLOTCUSTOMDPI
 70
   300
  0
XRECORD
  5
4F8
102
{ACAD_REACTORS
330
46F
102
}
330
46F
100
AcDbXrecord
280
     1
102
MATERIAL
148
0.0
149
0.0
149
0.0
 93
        0
 94
      127
282
     0
 72
     0
 77
     0
171
     0
175
     0
179
     0
273
     0
  0
XRECORD
  5
471
102
{ACAD_REACTORS
330
46F
102
}
330
46F
100
AcDbXrecord
280
     1
270
     1
271
     1
  0
XRECORD
  5
470
102
{ACAD_REACTORS
330
46F
102
}
330
46F
100
AcDbXrecord
280
     1
270
     1
271
     1
  0
XRECORD
  5
474
102
{ACAD_REACTORS
330
46F
102
}
330
46F
100
AcDbXrecord
280
     1
270
     1
271
     1
  0
XRECORD
  5
473
102
{ACAD_REACTORS
330
46F
102
}
330
46F
100
AcDbXrecord
280
     1
270
     1
271
     1
  0
XRECORD
  5
475
102
{ACAD_REACTORS
330
46F
102
}
330
46F
100
AcDbXrecord
280
     1
270
     1
271
     1
  0
XRECORD
  5
472
102
{ACAD_REACTORS
330
46F
102
}
330
46F
100
AcDbXrecord
280
     1
270
     1
271
     1
  0
XRECORD
  5
4F7
102
{ACAD_REACTORS
330
467
102
}
330
467
100
AcDbXrecord
280
     1
102
MATERIAL
148
0.0
149
0.0
149
0.0
 93
        0
 94
      127
282
     0
 72
     0
 77
     0
171
     0
175
     0
179
     0
273
     0
  0
XRECORD
  5
469
102
{ACAD_REACTORS
330
467
102
}
330
467
100
AcDbXrecord
280
     1
270
     1
271
     1
  0
XRECORD
  5
468
102
{ACAD_REACTORS
330
467
102
}
330
467
100
AcDbXrecord
280
     1
270
     1
271
     1
  0
XRECORD
  5
46C
102
{ACAD_REACTORS
330
467
102
}
330
467
100
AcDbXrecord
280
     1
270
     1
271
     1
  0
XRECORD
  5
46B
102
{ACAD_REACTORS
330
467
102
}
330
467
100
AcDbXrecord
280
     1
270
     1
271
     1
  0
XRECORD
  5
46D
102
{ACAD_REACTORS
330
467
102
}
330
467
100
AcDbXrecord
280
     1
270
     1
271
     1
  0
XRECORD
  5
46A
102
{ACAD_REACTORS
330
467
102
}
330
467
100
AcDbXrecord
280
     1
270
     1
271
     1
  0
XRECORD
  5
4F9
102
{ACAD_REACTORS
330
477
102
}
330
477
100
AcDbXrecord
280
     1
102
MATERIAL
148
0.0
149
0.0
149
0.0
 93
        0
 94
      127
282
     0
 72
     0
 77
     0
171
     0
175
     0
179
     0
273
     0
  0
XRECORD
  5
479
102
{ACAD_REACTORS
330
477
102
}
330
477
100
AcDbXrecord
280
     1
270
     1
271
     1
  0
XRECORD
  5
478
102
{ACAD_REACTORS
330
477
102
}
330
477
100
AcDbXrecord
280
     1
270
     1
271
     1
  0
XRECORD
  5
47C
102
{ACAD_REACTORS
330
477
102
}
330
477
100
AcDbXrecord
280
     1
270
     1
271
     1
  0
XRECORD
  5
47B
102
{ACAD_REACTORS
330
477
102
}
330
477
100
AcDbXrecord
280
     1
270
     1
271
     1
  0
XRECORD
  5
47D
102
{ACAD_REACTORS
330
477
102
}
330
477
100
AcDbXrecord
280
     1
270
     1
271
     1
  0
XRECORD
  5
47A
102
{ACAD_REACTORS
330
477
102
}
330
477
100
AcDbXrecord
280
     1
270
     1
271
     1
  0
XRECORD
  5
52D
102
{ACAD_REACTORS
330
52C
102
}
330
52C
100
AcDbXrecord
280
     1
102
DISPLAYNAME
  1
Imperial24
102
FLAGS
 90
        0
  0
CELLSTYLEMAP
  5
4F4
102
{ACAD_REACTORS
330
4F3
102
}
330
4F3
100
AcDbCellStyleMap
 90
        3
300
CELLSTYLE
  1
TABLEFORMAT_BEGIN
 90
        5
170
     1
 91
        0
 92
    32768
 62
   257
 93
        1
300
CONTENTFORMAT
  1
CONTENTFORMAT_BEGIN
 90
        0
 91
        0
 92
      512
 93
        0
300

 40
0.0
140
1.0
 94
        5
 62
     0
340
4AA
144
0.25
309
CONTENTFORMAT_END
171
     0
 94
        0
309
TABLEFORMAT_END
  1
CELLSTYLE_BEGIN
 90
        1
 91
        1
300
_TITLE
309
CELLSTYLE_END
300
CELLSTYLE
  1
TABLEFORMAT_BEGIN
 90
        5
170
     1
 91
        0
 92
        0
 62
   257
 93
        1
300
CONTENTFORMAT
  1
CONTENTFORMAT_BEGIN
 90
        0
 91
        0
 92
      512
 93
        0
300

 40
0.0
140
1.0
 94
        5
 62
     0
340
4AA
144
0.18
309
CONTENTFORMAT_END
171
     0
 94
        0
309
TABLEFORMAT_END
  1
CELLSTYLE_BEGIN
 90
        2
 91
        1
300
_HEADER
309
CELLSTYLE_END
300
CELLSTYLE
  1
TABLEFORMAT_BEGIN
 90
        5
170
     1
 91
        0
 92
        0
 62
   257
 93
        1
300
CONTENTFORMAT
  1
CONTENTFORMAT_BEGIN
 90
        0
 91
        0
 92
      512
 93
        0
300

 40
0.0
140
1.0
 94
        2
 62
     0
340
4AA
144
0.18
309
CONTENTFORMAT_END
171
     0
 94
        0
309
TABLEFORMAT_END
  1
CELLSTYLE_BEGIN
 90
        3
 91
        2
300
_DATA
309
CELLSTYLE_END
  0
XRECORD
  5
52A
102
{ACAD_REACTORS
330
4F3
102
}
330
4F3
100
AcDbXrecord
280
     1
102
ACAD_ROUNDTRIP_PRE2007_TABLESTYLE
 90
      512
 91
        0
  1

 92
      512
 93
        0
  2

 94
      512
 95
        0
  3

  0
XRECORD
  5
505
102
{ACAD_REACTORS
330
504
102
}
330
504
100
AcDbXrecord
280
     1
102
RTVSPost2010Prop28
280
     1
102
RTVSPost2010PropOp28
 70
     1
102
RTVSPost2010Prop29
280
     1
102
RTVSPost2010PropOp29
 70
     1
102
RTVSPost2010Prop30
280
     0
102
RTVSPost2010PropOp30
 70
     1
102
RTVSPost2010Prop31
280
     0
102
RTVSPost2010PropOp31
 70
     1
102
RTVSPost2010Prop32
280
     0
102
RTVSPost2010PropOp32
 70
     1
102
RTVSPost2010Prop33
280
     0
102
RTVSPost2010PropOp33
 70
     1
102
RTVSPost2010Prop34
280
     0
102
RTVSPost2010PropOp34
 70
     1
102
RTVSPost2010Prop35
280
     0
102
RTVSPost2010PropOp35
 70
     1
102
RTVSPost2010Prop36
280
     0
102
RTVSPost2010PropOp36
 70
     1
102
RTVSPost2010Prop37
 90
       50
102
RTVSPost2010PropOp37
 70
     1
102
RTVSPost2010Prop38
140
0.0
102
RTVSPost2010PropOp38
 70
     1
102
RTVSPost2010Prop39
140
1.0
102
RTVSPost2010PropOp39
 70
     1
102
RTVSPost2010Prop40
 90
        0
102
RTVSPost2010PropOp40
 70
     1
102
RTVSPost2010Prop41ColorIndex
 90
       18
102
RTVSPost2010Prop41ColorRGB
 90
        0
102
RTVSPost2010PropOp41
 70
     1
102
RTVSPost2010Prop42
 90
       50
102
RTVSPost2010PropOp42
 70
     1
102
RTVSPost2010Prop43
 90
        3
102
RTVSPost2010PropOp43
 70
     1
102
RTVSPost2010Prop44ColorIndex
 90
        5
102
RTVSPost2010Prop44ColorRGB
 90
      255
102
RTVSPost2010PropOp44
 70
     1
102
RTVSPost2010Prop45
280
     0
102
RTVSPost2010PropOp45
 70
     1
102
RTVSPost2010Prop46
 90
       50
102
RTVSPost2010PropOp46
 70
     1
102
RTVSPost2010Prop47
 90
       50
102
RTVSPost2010PropOp47
 70
     1
102
RTVSPost2010Prop48
 90
       50
102
RTVSPost2010PropOp48
 70
     1
102
RTVSPost2010Prop49
280
     0
102
RTVSPost2010PropOp49
 70
     1
102
RTVSPost2010Prop50
 90
       50
102
RTVSPost2010PropOp50
 70
     1
102
RTVSPost2010Prop51ColorIndex
 90
      256
102
RTVSPost2010Prop51ColorRGB
 90
-16777216
102
RTVSPost2010PropOp51
 70
     0
102
RTVSPost2010Prop52
140
1.0
102
RTVSPost2010PropOp52
 70
     0
102
RTVSPost2010Prop53
 90
        2
102
RTVSPost2010PropOp53
 70
     1
102
RTVSPost2010Prop54
  1
strokes_ogs.tif
102
RTVSPost2010PropOp54
 70
     1
102
RTVSPost2010Prop55
280
     0
102
RTVSPost2010PropOp55
 70
     1
102
RTVSPost2010Prop56
140
1.0
102
RTVSPost2010PropOp56
 70
     1
102
RTVSPost2010Prop57
140
1.0
102
RTVSPost2010PropOp57
 70
     1
102
RTVSPropertyOp0
 70
     1
102
RTVSPropertyOp1
 70
     1
102
RTVSPropertyOp2
 70
     1
102
RTVSPropertyOp3
 70
     1
102
RTVSPropertyOp4
 70
     1
102
RTVSPropertyOp5
 70
     1
102
RTVSPropertyOp6
 70
     1
102
RTVSPropertyOp7
 70
     1
102
RTVSPropertyOp8
 70
     1
102
RTVSPropertyOp9
 70
     1
102
RTVSPropertyOp10
 70
     1
102
RTVSPropertyOp11
 70
     1
102
RTVSPropertyOp12
 70
     1
102
RTVSPropertyOp13
 70
     1
102
RTVSPropertyOp14
 70
     1
102
RTVSPropertyOp15
 70
     1
102
RTVSPropertyOp16
 70
     1
102
RTVSPropertyOp17
 70
     1
102
RTVSPropertyOp18
 70
     1
102
RTVSPropertyOp19
 70
     1
102
RTVSPropertyOp20
 70
     1
102
RTVSPropertyOp21
 70
     1
102
RTVSPropertyOp22
 70
     1
102
RTVSPropertyOp23
 70
     1
102
RTVSPropertyOp24
 70
     1
102
RTVSPropertyOp25
 70
     1
102
RTVSPropertyOp26
 70
     1
102
RTVSPropertyOp27
 70
     1
102
RTVSPropertyOp28
 70
     1
102
RTVSPropertyOp29
 70
     1
102
RTVSPropertyOp30
 70
     1
102
RTVSPropertyOp31
 70
     1
102
RTVSPropertyOp32
 70
     1
102
RTVSPropertyOp33
 70
     1
102
RTVSPropertyOp34
 70
     1
102
RTVSPropertyOp35
 70
     1
102
RTVSPropertyOp36
 70
     1
102
RTVSPropertyOp37
 70
     1
102
RTVSPropertyOp38
 70
     1
102
RTVSPropertyOp39
 70
     1
102
RTVSPropertyOp40
 70
     1
102
RTVSPropertyOp41
 70
     1
102
RTVSPropertyOp42
 70
     1
102
RTVSPropertyOp43
 70
     1
102
RTVSPropertyOp44
 70
     1
102
RTVSPropertyOp45
 70
     1
102
RTVSPropertyOp46
 70
     1
102
RTVSPropertyOp47
 70
     1
102
RTVSPropertyOp48
 70
     1
102
RTVSPropertyOp49
 70
     1
102
RTVSPropertyOp50
 70
     1
102
RTVSPropertyOp51
 70
     0
102
RTVSPropertyOp52
 70
     0
102
RTVSPropertyOp53
 70
     1
102
RTVSPropertyOp54
 70
     1
102
RTVSPropertyOp55
 70
     1
102
RTVSPropertyOp56
 70
     1
102
RTVSPropertyOp57
 70
     1
102
RTVSPropertyOp58
 70
     1
102
RTVSPropertyOp59
 70
     1
102
RTVSPropertyOp60
 70
     1
102
RTVSPropertyOp61
 70
     1
102
RTVSPropertyOp62
 70
     1
  0
XRECORD
  5
503
102
{ACAD_REACTORS
330
502
102
}
330
502
100
AcDbXrecord
280
     1
102
RTVSPost2010Prop28
280
     0
102
RTVSPost2010PropOp28
 70
     1
102
RTVSPost2010Prop29
280
     1
102
RTVSPost2010PropOp29
 70
     1
102
RTVSPost2010Prop30
280
     1
102
RTVSPost2010PropOp30
 70
     1
102
RTVSPost2010Prop31
280
     0
102
RTVSPost2010PropOp31
 70
     1
102
RTVSPost2010Prop32
280
     0
102
RTVSPost2010PropOp32
 70
     1
102
RTVSPost2010Prop33
280
     0
102
RTVSPost2010PropOp33
 70
     1
102
RTVSPost2010Prop34
280
     0
102
RTVSPost2010PropOp34
 70
     1
102
RTVSPost2010Prop35
280
     0
102
RTVSPost2010PropOp35
 70
     1
102
RTVSPost2010Prop36
280
     0
102
RTVSPost2010PropOp36
 70
     1
102
RTVSPost2010Prop37
 90
       50
102
RTVSPost2010PropOp37
 70
     1
102
RTVSPost2010Prop38
140
0.0
102
RTVSPost2010PropOp38
 70
     1
102
RTVSPost2010Prop39
140
1.0
102
RTVSPost2010PropOp39
 70
     1
102
RTVSPost2010Prop40
 90
        0
102
RTVSPost2010PropOp40
 70
     1
102
RTVSPost2010Prop41ColorIndex
 90
       18
102
RTVSPost2010Prop41ColorRGB
 90
        0
102
RTVSPost2010PropOp41
 70
     1
102
RTVSPost2010Prop42
 90
       50
102
RTVSPost2010PropOp42
 70
     1
102
RTVSPost2010Prop43
 90
        3
102
RTVSPost2010PropOp43
 70
     1
102
RTVSPost2010Prop44ColorIndex
 90
        5
102
RTVSPost2010Prop44ColorRGB
 90
      255
102
RTVSPost2010PropOp44
 70
     1
102
RTVSPost2010Prop45
280
     0
102
RTVSPost2010PropOp45
 70
     1
102
RTVSPost2010Prop46
 90
       50
102
RTVSPost2010PropOp46
 70
     1
102
RTVSPost2010Prop47
 90
       50
102
RTVSPost2010PropOp47
 70
     1
102
RTVSPost2010Prop48
 90
       50
102
RTVSPost2010PropOp48
 70
     1
102
RTVSPost2010Prop49
280
     0
102
RTVSPost2010PropOp49
 70
     1
102
RTVSPost2010Prop50
 90
       50
102
RTVSPost2010PropOp50
 70
     1
102
RTVSPost2010Prop51ColorIndex
 90
      256
102
RTVSPost2010Prop51ColorRGB
 90
-16777216
102
RTVSPost2010PropOp51
 70
     0
102
RTVSPost2010Prop52
140
1.0
102
RTVSPost2010PropOp52
 70
     0
102
RTVSPost2010Prop53
 90
        2
102
RTVSPost2010PropOp53
 70
     1
102
RTVSPost2010Prop54
  1
strokes_ogs.tif
102
RTVSPost2010PropOp54
 70
     1
102
RTVSPost2010Prop55
280
     0
102
RTVSPost2010PropOp55
 70
     1
102
RTVSPost2010Prop56
140
1.0
102
RTVSPost2010PropOp56
 70
     1
102
RTVSPost2010Prop57
140
1.0
102
RTVSPost2010PropOp57
 70
     1
102
RTVSPropertyOp0
 70
     1
102
RTVSPropertyOp1
 70
     1
102
RTVSPropertyOp2
 70
     1
102
RTVSPropertyOp3
 70
     1
102
RTVSPropertyOp4
 70
     1
102
RTVSPropertyOp5
 70
     1
102
RTVSPropertyOp6
 70
     1
102
RTVSPropertyOp7
 70
     1
102
RTVSPropertyOp8
 70
     1
102
RTVSPropertyOp9
 70
     1
102
RTVSPropertyOp10
 70
     1
102
RTVSPropertyOp11
 70
     1
102
RTVSPropertyOp12
 70
     1
102
RTVSPropertyOp13
 70
     1
102
RTVSPropertyOp14
 70
     1
102
RTVSPropertyOp15
 70
     1
102
RTVSPropertyOp16
 70
     1
102
RTVSPropertyOp17
 70
     1
102
RTVSPropertyOp18
 70
     1
102
RTVSPropertyOp19
 70
     1
102
RTVSPropertyOp20
 70
     1
102
RTVSPropertyOp21
 70
     1
102
RTVSPropertyOp22
 70
     1
102
RTVSPropertyOp23
 70
     1
102
RTVSPropertyOp24
 70
     1
102
RTVSPropertyOp25
 70
     1
102
RTVSPropertyOp26
 70
     1
102
RTVSPropertyOp27
 70
     1
102
RTVSPropertyOp28
 70
     1
102
RTVSPropertyOp29
 70
     1
102
RTVSPropertyOp30
 70
     1
102
RTVSPropertyOp31
 70
     1
102
RTVSPropertyOp32
 70
     1
102
RTVSPropertyOp33
 70
     1
102
RTVSPropertyOp34
 70
     1
102
RTVSPropertyOp35
 70
     1
102
RTVSPropertyOp36
 70
     1
102
RTVSPropertyOp37
 70
     1
102
RTVSPropertyOp38
 70
     1
102
RTVSPropertyOp39
 70
     1
102
RTVSPropertyOp40
 70
     1
102
RTVSPropertyOp41
 70
     1
102
RTVSPropertyOp42
 70
     1
102
RTVSPropertyOp43
 70
     1
102
RTVSPropertyOp44
 70
     1
102
RTVSPropertyOp45
 70
     1
102
RTVSPropertyOp46
 70
     1
102
RTVSPropertyOp47
 70
     1
102
RTVSPropertyOp48
 70
     1
102
RTVSPropertyOp49
 70
     1
102
RTVSPropertyOp50
 70
     1
102
RTVSPropertyOp51
 70
     0
102
RTVSPropertyOp52
 70
     0
102
RTVSPropertyOp53
 70
     1
102
RTVSPropertyOp54
 70
     1
102
RTVSPropertyOp55
 70
     1
102
RTVSPropertyOp56
 70
     1
102
RTVSPropertyOp57
 70
     1
102
RTVSPropertyOp58
 70
     1
102
RTVSPropertyOp59
 70
     1
102
RTVSPropertyOp60
 70
     1
102
RTVSPropertyOp61
 70
     1
102
RTVSPropertyOp62
 70
     1
  0
XRECORD
  5
511
102
{ACAD_REACTORS
330
510
102
}
330
510
100
AcDbXrecord
280
     1
102
RTVSPost2010Prop28
280
     0
102
RTVSPost2010PropOp28
 70
     1
102
RTVSPost2010Prop29
280
     1
102
RTVSPost2010PropOp29
 70
     1
102
RTVSPost2010Prop30
280
     1
102
RTVSPost2010PropOp30
 70
     1
102
RTVSPost2010Prop31
280
     0
102
RTVSPost2010PropOp31
 70
     1
102
RTVSPost2010Prop32
280
     0
102
RTVSPost2010PropOp32
 70
     1
102
RTVSPost2010Prop33
280
     0
102
RTVSPost2010PropOp33
 70
     1
102
RTVSPost2010Prop34
280
     0
102
RTVSPost2010PropOp34
 70
     1
102
RTVSPost2010Prop35
280
     0
102
RTVSPost2010PropOp35
 70
     1
102
RTVSPost2010Prop36
280
     0
102
RTVSPost2010PropOp36
 70
     1
102
RTVSPost2010Prop37
 90
       50
102
RTVSPost2010PropOp37
 70
     1
102
RTVSPost2010Prop38
140
0.0
102
RTVSPost2010PropOp38
 70
     1
102
RTVSPost2010Prop39
140
1.0
102
RTVSPost2010PropOp39
 70
     1
102
RTVSPost2010Prop40
 90
        0
102
RTVSPost2010PropOp40
 70
     1
102
RTVSPost2010Prop41ColorIndex
 90
       18
102
RTVSPost2010Prop41ColorRGB
 90
        0
102
RTVSPost2010PropOp41
 70
     1
102
RTVSPost2010Prop42
 90
       50
102
RTVSPost2010PropOp42
 70
     1
102
RTVSPost2010Prop43
 90
        3
102
RTVSPost2010PropOp43
 70
     1
102
RTVSPost2010Prop44ColorIndex
 90
        5
102
RTVSPost2010Prop44ColorRGB
 90
      255
102
RTVSPost2010PropOp44
 70
     1
102
RTVSPost2010Prop45
280
     0
102
RTVSPost2010PropOp45
 70
     1
102
RTVSPost2010Prop46
 90
       50
102
RTVSPost2010PropOp46
 70
     1
102
RTVSPost2010Prop47
 90
       50
102
RTVSPost2010PropOp47
 70
     1
102
RTVSPost2010Prop48
 90
       50
102
RTVSPost2010PropOp48
 70
     1
102
RTVSPost2010Prop49
280
     0
102
RTVSPost2010PropOp49
 70
     1
102
RTVSPost2010Prop50
 90
       50
102
RTVSPost2010PropOp50
 70
     1
102
RTVSPost2010Prop51ColorIndex
 90
      256
102
RTVSPost2010Prop51ColorRGB
 90
-16777216
102
RTVSPost2010PropOp51
 70
     0
102
RTVSPost2010Prop52
140
1.0
102
RTVSPost2010PropOp52
 70
     0
102
RTVSPost2010Prop53
 90
        2
102
RTVSPost2010PropOp53
 70
     1
102
RTVSPost2010Prop54
  1
strokes_ogs.tif
102
RTVSPost2010PropOp54
 70
     1
102
RTVSPost2010Prop55
280
     0
102
RTVSPost2010PropOp55
 70
     1
102
RTVSPost2010Prop56
140
1.0
102
RTVSPost2010PropOp56
 70
     1
102
RTVSPost2010Prop57
140
1.0
102
RTVSPost2010PropOp57
 70
     1
102
RTVSPropertyOp0
 70
     1
102
RTVSPropertyOp1
 70
     1
102
RTVSPropertyOp2
 70
     1
102
RTVSPropertyOp3
 70
     1
102
RTVSPropertyOp4
 70
     1
102
RTVSPropertyOp5
 70
     1
102
RTVSPropertyOp6
 70
     1
102
RTVSPropertyOp7
 70
     1
102
RTVSPropertyOp8
 70
     1
102
RTVSPropertyOp9
 70
     1
102
RTVSPropertyOp10
 70
     1
102
RTVSPropertyOp11
 70
     1
102
RTVSPropertyOp12
 70
     1
102
RTVSPropertyOp13
 70
     1
102
RTVSPropertyOp14
 70
     1
102
RTVSPropertyOp15
 70
     1
102
RTVSPropertyOp16
 70
     1
102
RTVSPropertyOp17
 70
     1
102
RTVSPropertyOp18
 70
     1
102
RTVSPropertyOp19
 70
     1
102
RTVSPropertyOp20
 70
     1
102
RTVSPropertyOp21
 70
     1
102
RTVSPropertyOp22
 70
     1
102
RTVSPropertyOp23
 70
     1
102
RTVSPropertyOp24
 70
     1
102
RTVSPropertyOp25
 70
     1
102
RTVSPropertyOp26
 70
     1
102
RTVSPropertyOp27
 70
     1
102
RTVSPropertyOp28
 70
     1
102
RTVSPropertyOp29
 70
     1
102
RTVSPropertyOp30
 70
     1
102
RTVSPropertyOp31
 70
     1
102
RTVSPropertyOp32
 70
     1
102
RTVSPropertyOp33
 70
     1
102
RTVSPropertyOp34
 70
     1
102
RTVSPropertyOp35
 70
     1
102
RTVSPropertyOp36
 70
     1
102
RTVSPropertyOp37
 70
     1
102
RTVSPropertyOp38
 70
     1
102
RTVSPropertyOp39
 70
     1
102
RTVSPropertyOp40
 70
     1
102
RTVSPropertyOp41
 70
     1
102
RTVSPropertyOp42
 70
     1
102
RTVSPropertyOp43
 70
     1
102
RTVSPropertyOp44
 70
     1
102
RTVSPropertyOp45
 70
     1
102
RTVSPropertyOp46
 70
     1
102
RTVSPropertyOp47
 70
     1
102
RTVSPropertyOp48
 70
     1
102
RTVSPropertyOp49
 70
     1
102
RTVSPropertyOp50
 70
     1
102
RTVSPropertyOp51
 70
     0
102
RTVSPropertyOp52
 70
     0
102
RTVSPropertyOp53
 70
     1
102
RTVSPropertyOp54
 70
     1
102
RTVSPropertyOp55
 70
     1
102
RTVSPropertyOp56
 70
     1
102
RTVSPropertyOp57
 70
     1
102
RTVSPropertyOp58
 70
     1
102
RTVSPropertyOp59
 70
     1
102
RTVSPropertyOp60
 70
     1
102
RTVSPropertyOp61
 70
     1
102
RTVSPropertyOp62
 70
     1
  0
XRECORD
  5
519
102
{ACAD_REACTORS
330
518
102
}
330
518
100
AcDbXrecord
280
     1
102
RTVSPost2010Prop28
280
     0
102
RTVSPost2010PropOp28
 70
     1
102
RTVSPost2010Prop29
280
     1
102
RTVSPost2010PropOp29
 70
     1
102
RTVSPost2010Prop30
280
     1
102
RTVSPost2010PropOp30
 70
     1
102
RTVSPost2010Prop31
280
     0
102
RTVSPost2010PropOp31
 70
     1
102
RTVSPost2010Prop32
280
     0
102
RTVSPost2010PropOp32
 70
     1
102
RTVSPost2010Prop33
280
     0
102
RTVSPost2010PropOp33
 70
     1
102
RTVSPost2010Prop34
280
     0
102
RTVSPost2010PropOp34
 70
     1
102
RTVSPost2010Prop35
280
     0
102
RTVSPost2010PropOp35
 70
     1
102
RTVSPost2010Prop36
280
     0
102
RTVSPost2010PropOp36
 70
     1
102
RTVSPost2010Prop37
 90
       50
102
RTVSPost2010PropOp37
 70
     1
102
RTVSPost2010Prop38
140
0.0
102
RTVSPost2010PropOp38
 70
     1
102
RTVSPost2010Prop39
140
1.0
102
RTVSPost2010PropOp39
 70
     1
102
RTVSPost2010Prop40
 90
        0
102
RTVSPost2010PropOp40
 70
     1
102
RTVSPost2010Prop41ColorIndex
 90
       18
102
RTVSPost2010Prop41ColorRGB
 90
        0
102
RTVSPost2010PropOp41
 70
     1
102
RTVSPost2010Prop42
 90
       50
102
RTVSPost2010PropOp42
 70
     1
102
RTVSPost2010Prop43
 90
        3
102
RTVSPost2010PropOp43
 70
     1
102
RTVSPost2010Prop44ColorIndex
 90
        5
102
RTVSPost2010Prop44ColorRGB
 90
      255
102
RTVSPost2010PropOp44
 70
     1
102
RTVSPost2010Prop45
280
     0
102
RTVSPost2010PropOp45
 70
     1
102
RTVSPost2010Prop46
 90
       50
102
RTVSPost2010PropOp46
 70
     1
102
RTVSPost2010Prop47
 90
       50
102
RTVSPost2010PropOp47
 70
     1
102
RTVSPost2010Prop48
 90
       50
102
RTVSPost2010PropOp48
 70
     1
102
RTVSPost2010Prop49
280
     0
102
RTVSPost2010PropOp49
 70
     1
102
RTVSPost2010Prop50
 90
       50
102
RTVSPost2010PropOp50
 70
     1
102
RTVSPost2010Prop51ColorIndex
 90
      256
102
RTVSPost2010Prop51ColorRGB
 90
-16777216
102
RTVSPost2010PropOp51
 70
     0
102
RTVSPost2010Prop52
140
1.0
102
RTVSPost2010PropOp52
 70
     0
102
RTVSPost2010Prop53
 90
        2
102
RTVSPost2010PropOp53
 70
     1
102
RTVSPost2010Prop54
  1
strokes_ogs.tif
102
RTVSPost2010PropOp54
 70
     1
102
RTVSPost2010Prop55
280
     0
102
RTVSPost2010PropOp55
 70
     1
102
RTVSPost2010Prop56
140
1.0
102
RTVSPost2010PropOp56
 70
     1
102
RTVSPost2010Prop57
140
1.0
102
RTVSPost2010PropOp57
 70
     1
102
RTVSPropertyOp0
 70
     1
102
RTVSPropertyOp1
 70
     1
102
RTVSPropertyOp2
 70
     1
102
RTVSPropertyOp3
 70
     1
102
RTVSPropertyOp4
 70
     1
102
RTVSPropertyOp5
 70
     1
102
RTVSPropertyOp6
 70
     1
102
RTVSPropertyOp7
 70
     1
102
RTVSPropertyOp8
 70
     1
102
RTVSPropertyOp9
 70
     1
102
RTVSPropertyOp10
 70
     1
102
RTVSPropertyOp11
 70
     1
102
RTVSPropertyOp12
 70
     1
102
RTVSPropertyOp13
 70
     1
102
RTVSPropertyOp14
 70
     1
102
RTVSPropertyOp15
 70
     1
102
RTVSPropertyOp16
 70
     1
102
RTVSPropertyOp17
 70
     1
102
RTVSPropertyOp18
 70
     1
102
RTVSPropertyOp19
 70
     1
102
RTVSPropertyOp20
 70
     1
102
RTVSPropertyOp21
 70
     1
102
RTVSPropertyOp22
 70
     1
102
RTVSPropertyOp23
 70
     1
102
RTVSPropertyOp24
 70
     1
102
RTVSPropertyOp25
 70
     1
102
RTVSPropertyOp26
 70
     1
102
RTVSPropertyOp27
 70
     1
102
RTVSPropertyOp28
 70
     1
102
RTVSPropertyOp29
 70
     1
102
RTVSPropertyOp30
 70
     1
102
RTVSPropertyOp31
 70
     1
102
RTVSPropertyOp32
 70
     1
102
RTVSPropertyOp33
 70
     1
102
RTVSPropertyOp34
 70
     1
102
RTVSPropertyOp35
 70
     1
102
RTVSPropertyOp36
 70
     1
102
RTVSPropertyOp37
 70
     1
102
RTVSPropertyOp38
 70
     1
102
RTVSPropertyOp39
 70
     1
102
RTVSPropertyOp40
 70
     1
102
RTVSPropertyOp41
 70
     1
102
RTVSPropertyOp42
 70
     1
102
RTVSPropertyOp43
 70
     1
102
RTVSPropertyOp44
 70
     1
102
RTVSPropertyOp45
 70
     1
102
RTVSPropertyOp46
 70
     1
102
RTVSPropertyOp47
 70
     1
102
RTVSPropertyOp48
 70
     1
102
RTVSPropertyOp49
 70
     1
102
RTVSPropertyOp50
 70
     1
102
RTVSPropertyOp51
 70
     0
102
RTVSPropertyOp52
 70
     0
102
RTVSPropertyOp53
 70
     1
102
RTVSPropertyOp54
 70
     1
102
RTVSPropertyOp55
 70
     1
102
RTVSPropertyOp56
 70
     1
102
RTVSPropertyOp57
 70
     1
102
RTVSPropertyOp58
 70
     1
102
RTVSPropertyOp59
 70
     1
102
RTVSPropertyOp60
 70
     1
102
RTVSPropertyOp61
 70
     1
102
RTVSPropertyOp62
 70
     1
  0
XRECORD
  5
50B
102
{ACAD_REACTORS
330
50A
102
}
330
50A
100
AcDbXrecord
280
     1
102
RTVSPost2010Prop28
280
     0
102
RTVSPost2010PropOp28
 70
     1
102
RTVSPost2010Prop29
280
     1
102
RTVSPost2010PropOp29
 70
     1
102
RTVSPost2010Prop30
280
     1
102
RTVSPost2010PropOp30
 70
     1
102
RTVSPost2010Prop31
280
     0
102
RTVSPost2010PropOp31
 70
     1
102
RTVSPost2010Prop32
280
     0
102
RTVSPost2010PropOp32
 70
     1
102
RTVSPost2010Prop33
280
     0
102
RTVSPost2010PropOp33
 70
     1
102
RTVSPost2010Prop34
280
     0
102
RTVSPost2010PropOp34
 70
     1
102
RTVSPost2010Prop35
280
     0
102
RTVSPost2010PropOp35
 70
     1
102
RTVSPost2010Prop36
280
     0
102
RTVSPost2010PropOp36
 70
     1
102
RTVSPost2010Prop37
 90
       50
102
RTVSPost2010PropOp37
 70
     1
102
RTVSPost2010Prop38
140
0.0
102
RTVSPost2010PropOp38
 70
     1
102
RTVSPost2010Prop39
140
1.0
102
RTVSPost2010PropOp39
 70
     1
102
RTVSPost2010Prop40
 90
        0
102
RTVSPost2010PropOp40
 70
     1
102
RTVSPost2010Prop41ColorIndex
 90
       18
102
RTVSPost2010Prop41ColorRGB
 90
        0
102
RTVSPost2010PropOp41
 70
     1
102
RTVSPost2010Prop42
 90
       50
102
RTVSPost2010PropOp42
 70
     1
102
RTVSPost2010Prop43
 90
        3
102
RTVSPost2010PropOp43
 70
     1
102
RTVSPost2010Prop44ColorIndex
 90
        5
102
RTVSPost2010Prop44ColorRGB
 90
      255
102
RTVSPost2010PropOp44
 70
     1
102
RTVSPost2010Prop45
280
     0
102
RTVSPost2010PropOp45
 70
     1
102
RTVSPost2010Prop46
 90
       50
102
RTVSPost2010PropOp46
 70
     1
102
RTVSPost2010Prop47
 90
       50
102
RTVSPost2010PropOp47
 70
     1
102
RTVSPost2010Prop48
 90
       50
102
RTVSPost2010PropOp48
 70
     1
102
RTVSPost2010Prop49
280
     0
102
RTVSPost2010PropOp49
 70
     1
102
RTVSPost2010Prop50
 90
       50
102
RTVSPost2010PropOp50
 70
     1
102
RTVSPost2010Prop51ColorIndex
 90
      256
102
RTVSPost2010Prop51ColorRGB
 90
-16777216
102
RTVSPost2010PropOp51
 70
     0
102
RTVSPost2010Prop52
140
1.0
102
RTVSPost2010PropOp52
 70
     0
102
RTVSPost2010Prop53
 90
        2
102
RTVSPost2010PropOp53
 70
     1
102
RTVSPost2010Prop54
  1
strokes_ogs.tif
102
RTVSPost2010PropOp54
 70
     1
102
RTVSPost2010Prop55
280
     0
102
RTVSPost2010PropOp55
 70
     1
102
RTVSPost2010Prop56
140
1.0
102
RTVSPost2010PropOp56
 70
     1
102
RTVSPost2010Prop57
140
1.0
102
RTVSPost2010PropOp57
 70
     1
102
RTVSPropertyOp0
 70
     1
102
RTVSPropertyOp1
 70
     1
102
RTVSPropertyOp2
 70
     1
102
RTVSPropertyOp3
 70
     1
102
RTVSPropertyOp4
 70
     1
102
RTVSPropertyOp5
 70
     1
102
RTVSPropertyOp6
 70
     1
102
RTVSPropertyOp7
 70
     1
102
RTVSPropertyOp8
 70
     1
102
RTVSPropertyOp9
 70
     1
102
RTVSPropertyOp10
 70
     1
102
RTVSPropertyOp11
 70
     1
102
RTVSPropertyOp12
 70
     1
102
RTVSPropertyOp13
 70
     1
102
RTVSPropertyOp14
 70
     1
102
RTVSPropertyOp15
 70
     1
102
RTVSPropertyOp16
 70
     1
102
RTVSPropertyOp17
 70
     1
102
RTVSPropertyOp18
 70
     1
102
RTVSPropertyOp19
 70
     1
102
RTVSPropertyOp20
 70
     1
102
RTVSPropertyOp21
 70
     1
102
RTVSPropertyOp22
 70
     1
102
RTVSPropertyOp23
 70
     1
102
RTVSPropertyOp24
 70
     1
102
RTVSPropertyOp25
 70
     1
102
RTVSPropertyOp26
 70
     1
102
RTVSPropertyOp27
 70
     1
102
RTVSPropertyOp28
 70
     1
102
RTVSPropertyOp29
 70
     1
102
RTVSPropertyOp30
 70
     1
102
RTVSPropertyOp31
 70
     1
102
RTVSPropertyOp32
 70
     1
102
RTVSPropertyOp33
 70
     1
102
RTVSPropertyOp34
 70
     1
102
RTVSPropertyOp35
 70
     1
102
RTVSPropertyOp36
 70
     1
102
RTVSPropertyOp37
 70
     1
102
RTVSPropertyOp38
 70
     1
102
RTVSPropertyOp39
 70
     1
102
RTVSPropertyOp40
 70
     1
102
RTVSPropertyOp41
 70
     1
102
RTVSPropertyOp42
 70
     1
102
RTVSPropertyOp43
 70
     1
102
RTVSPropertyOp44
 70
     1
102
RTVSPropertyOp45
 70
     1
102
RTVSPropertyOp46
 70
     1
102
RTVSPropertyOp47
 70
     1
102
RTVSPropertyOp48
 70
     1
102
RTVSPropertyOp49
 70
     1
102
RTVSPropertyOp50
 70
     1
102
RTVSPropertyOp51
 70
     0
102
RTVSPropertyOp52
 70
     0
102
RTVSPropertyOp53
 70
     1
102
RTVSPropertyOp54
 70
     1
102
RTVSPropertyOp55
 70
     1
102
RTVSPropertyOp56
 70
     1
102
RTVSPropertyOp57
 70
     1
102
RTVSPropertyOp58
 70
     1
102
RTVSPropertyOp59
 70
     1
102
RTVSPropertyOp60
 70
     1
102
RTVSPropertyOp61
 70
     1
102
RTVSPropertyOp62
 70
     1
  0
XRECORD
  5
50F
102
{ACAD_REACTORS
330
50E
102
}
330
50E
100
AcDbXrecord
280
     1
102
RTVSPost2010Prop28
280
     0
102
RTVSPost2010PropOp28
 70
     1
102
RTVSPost2010Prop29
280
     1
102
RTVSPost2010PropOp29
 70
     1
102
RTVSPost2010Prop30
280
     1
102
RTVSPost2010PropOp30
 70
     1
102
RTVSPost2010Prop31
280
     0
102
RTVSPost2010PropOp31
 70
     1
102
RTVSPost2010Prop32
280
     0
102
RTVSPost2010PropOp32
 70
     1
102
RTVSPost2010Prop33
280
     0
102
RTVSPost2010PropOp33
 70
     1
102
RTVSPost2010Prop34
280
     0
102
RTVSPost2010PropOp34
 70
     1
102
RTVSPost2010Prop35
280
     0
102
RTVSPost2010PropOp35
 70
     1
102
RTVSPost2010Prop36
280
     0
102
RTVSPost2010PropOp36
 70
     1
102
RTVSPost2010Prop37
 90
       50
102
RTVSPost2010PropOp37
 70
     1
102
RTVSPost2010Prop38
140
0.0
102
RTVSPost2010PropOp38
 70
     1
102
RTVSPost2010Prop39
140
1.0
102
RTVSPost2010PropOp39
 70
     1
102
RTVSPost2010Prop40
 90
        0
102
RTVSPost2010PropOp40
 70
     1
102
RTVSPost2010Prop41ColorIndex
 90
       18
102
RTVSPost2010Prop41ColorRGB
 90
        0
102
RTVSPost2010PropOp41
 70
     1
102
RTVSPost2010Prop42
 90
       50
102
RTVSPost2010PropOp42
 70
     1
102
RTVSPost2010Prop43
 90
        3
102
RTVSPost2010PropOp43
 70
     1
102
RTVSPost2010Prop44ColorIndex
 90
        5
102
RTVSPost2010Prop44ColorRGB
 90
      255
102
RTVSPost2010PropOp44
 70
     1
102
RTVSPost2010Prop45
280
     0
102
RTVSPost2010PropOp45
 70
     1
102
RTVSPost2010Prop46
 90
       50
102
RTVSPost2010PropOp46
 70
     1
102
RTVSPost2010Prop47
 90
       50
102
RTVSPost2010PropOp47
 70
     1
102
RTVSPost2010Prop48
 90
       50
102
RTVSPost2010PropOp48
 70
     1
102
RTVSPost2010Prop49
280
     0
102
RTVSPost2010PropOp49
 70
     1
102
RTVSPost2010Prop50
 90
       50
102
RTVSPost2010PropOp50
 70
     1
102
RTVSPost2010Prop51ColorIndex
 90
      256
102
RTVSPost2010Prop51ColorRGB
 90
-16777216
102
RTVSPost2010PropOp51
 70
     0
102
RTVSPost2010Prop52
140
1.0
102
RTVSPost2010PropOp52
 70
     0
102
RTVSPost2010Prop53
 90
        2
102
RTVSPost2010PropOp53
 70
     1
102
RTVSPost2010Prop54
  1
strokes_ogs.tif
102
RTVSPost2010PropOp54
 70
     1
102
RTVSPost2010Prop55
280
     0
102
RTVSPost2010PropOp55
 70
     1
102
RTVSPost2010Prop56
140
1.0
102
RTVSPost2010PropOp56
 70
     1
102
RTVSPost2010Prop57
140
1.0
102
RTVSPost2010PropOp57
 70
     1
102
RTVSPropertyOp0
 70
     1
102
RTVSPropertyOp1
 70
     1
102
RTVSPropertyOp2
 70
     1
102
RTVSPropertyOp3
 70
     1
102
RTVSPropertyOp4
 70
     1
102
RTVSPropertyOp5
 70
     1
102
RTVSPropertyOp6
 70
     1
102
RTVSPropertyOp7
 70
     1
102
RTVSPropertyOp8
 70
     1
102
RTVSPropertyOp9
 70
     1
102
RTVSPropertyOp10
 70
     1
102
RTVSPropertyOp11
 70
     1
102
RTVSPropertyOp12
 70
     1
102
RTVSPropertyOp13
 70
     1
102
RTVSPropertyOp14
 70
     1
102
RTVSPropertyOp15
 70
     1
102
RTVSPropertyOp16
 70
     1
102
RTVSPropertyOp17
 70
     1
102
RTVSPropertyOp18
 70
     1
102
RTVSPropertyOp19
 70
     1
102
RTVSPropertyOp20
 70
     1
102
RTVSPropertyOp21
 70
     1
102
RTVSPropertyOp22
 70
     1
102
RTVSPropertyOp23
 70
     1
102
RTVSPropertyOp24
 70
     1
102
RTVSPropertyOp25
 70
     1
102
RTVSPropertyOp26
 70
     1
102
RTVSPropertyOp27
 70
     1
102
RTVSPropertyOp28
 70
     1
102
RTVSPropertyOp29
 70
     1
102
RTVSPropertyOp30
 70
     1
102
RTVSPropertyOp31
 70
     1
102
RTVSPropertyOp32
 70
     1
102
RTVSPropertyOp33
 70
     1
102
RTVSPropertyOp34
 70
     1
102
RTVSPropertyOp35
 70
     1
102
RTVSPropertyOp36
 70
     1
102
RTVSPropertyOp37
 70
     1
102
RTVSPropertyOp38
 70
     1
102
RTVSPropertyOp39
 70
     1
102
RTVSPropertyOp40
 70
     1
102
RTVSPropertyOp41
 70
     1
102
RTVSPropertyOp42
 70
     1
102
RTVSPropertyOp43
 70
     1
102
RTVSPropertyOp44
 70
     1
102
RTVSPropertyOp45
 70
     1
102
RTVSPropertyOp46
 70
     1
102
RTVSPropertyOp47
 70
     1
102
RTVSPropertyOp48
 70
     1
102
RTVSPropertyOp49
 70
     1
102
RTVSPropertyOp50
 70
     1
102
RTVSPropertyOp51
 70
     0
102
RTVSPropertyOp52
 70
     0
102
RTVSPropertyOp53
 70
     1
102
RTVSPropertyOp54
 70
     1
102
RTVSPropertyOp55
 70
     1
102
RTVSPropertyOp56
 70
     1
102
RTVSPropertyOp57
 70
     1
102
RTVSPropertyOp58
 70
     1
102
RTVSPropertyOp59
 70
     1
102
RTVSPropertyOp60
 70
     1
102
RTVSPropertyOp61
 70
     1
102
RTVSPropertyOp62
 70
     1
  0
XRECORD
  5
529
102
{ACAD_REACTORS
330
528
102
}
330
528
100
AcDbXrecord
280
     1
102
RTVSPost2010Prop28
280
     0
102
RTVSPost2010PropOp28
 70
     1
102
RTVSPost2010Prop29
280
     1
102
RTVSPost2010PropOp29
 70
     1
102
RTVSPost2010Prop30
280
     1
102
RTVSPost2010PropOp30
 70
     1
102
RTVSPost2010Prop31
280
     0
102
RTVSPost2010PropOp31
 70
     1
102
RTVSPost2010Prop32
280
     0
102
RTVSPost2010PropOp32
 70
     1
102
RTVSPost2010Prop33
280
     0
102
RTVSPost2010PropOp33
 70
     1
102
RTVSPost2010Prop34
280
     0
102
RTVSPost2010PropOp34
 70
     1
102
RTVSPost2010Prop35
280
     0
102
RTVSPost2010PropOp35
 70
     1
102
RTVSPost2010Prop36
280
     0
102
RTVSPost2010PropOp36
 70
     1
102
RTVSPost2010Prop37
 90
       50
102
RTVSPost2010PropOp37
 70
     0
102
RTVSPost2010Prop38
140
0.0
102
RTVSPost2010PropOp38
 70
     0
102
RTVSPost2010Prop39
140
1.0
102
RTVSPost2010PropOp39
 70
     0
102
RTVSPost2010Prop40
 90
        0
102
RTVSPost2010PropOp40
 70
     0
102
RTVSPost2010Prop41ColorIndex
 90
       18
102
RTVSPost2010Prop41ColorRGB
 90
        0
102
RTVSPost2010PropOp41
 70
     0
102
RTVSPost2010Prop42
 90
       50
102
RTVSPost2010PropOp42
 70
     0
102
RTVSPost2010Prop43
 90
        3
102
RTVSPost2010PropOp43
 70
     0
102
RTVSPost2010Prop44ColorIndex
 90
        5
102
RTVSPost2010Prop44ColorRGB
 90
      255
102
RTVSPost2010PropOp44
 70
     0
102
RTVSPost2010Prop45
280
     0
102
RTVSPost2010PropOp45
 70
     1
102
RTVSPost2010Prop46
 90
       50
102
RTVSPost2010PropOp46
 70
     0
102
RTVSPost2010Prop47
 90
       50
102
RTVSPost2010PropOp47
 70
     0
102
RTVSPost2010Prop48
 90
       50
102
RTVSPost2010PropOp48
 70
     0
102
RTVSPost2010Prop49
280
     0
102
RTVSPost2010PropOp49
 70
     1
102
RTVSPost2010Prop50
 90
       50
102
RTVSPost2010PropOp50
 70
     0
102
RTVSPost2010Prop51ColorIndex
 90
      256
102
RTVSPost2010Prop51ColorRGB
 90
-16777216
102
RTVSPost2010PropOp51
 70
     0
102
RTVSPost2010Prop52
140
1.0
102
RTVSPost2010PropOp52
 70
     0
102
RTVSPost2010Prop53
 90
        2
102
RTVSPost2010PropOp53
 70
     0
102
RTVSPost2010Prop54
  1
strokes_ogs.tif
102
RTVSPost2010PropOp54
 70
     0
102
RTVSPost2010Prop55
280
     0
102
RTVSPost2010PropOp55
 70
     1
102
RTVSPost2010Prop56
140
1.0
102
RTVSPost2010PropOp56
 70
     0
102
RTVSPost2010Prop57
140
1.0
102
RTVSPost2010PropOp57
 70
     0
102
RTVSPropertyOp0
 70
     0
102
RTVSPropertyOp1
 70
     0
102
RTVSPropertyOp2
 70
     0
102
RTVSPropertyOp3
 70
     0
102
RTVSPropertyOp4
 70
     0
102
RTVSPropertyOp5
 70
     0
102
RTVSPropertyOp6
 70
     0
102
RTVSPropertyOp7
 70
     0
102
RTVSPropertyOp8
 70
     0
102
RTVSPropertyOp9
 70
     0
102
RTVSPropertyOp10
 70
     0
102
RTVSPropertyOp11
 70
     0
102
RTVSPropertyOp12
 70
     0
102
RTVSPropertyOp13
 70
     0
102
RTVSPropertyOp14
 70
     2
102
RTVSPropertyOp15
 70
     0
102
RTVSPropertyOp16
 70
     0
102
RTVSPropertyOp17
 70
     0
102
RTVSPropertyOp18
 70
     0
102
RTVSPropertyOp19
 70
     0
102
RTVSPropertyOp20
 70
     0
102
RTVSPropertyOp21
 70
     0
102
RTVSPropertyOp22
 70
     0
102
RTVSPropertyOp23
 70
     0
102
RTVSPropertyOp24
 70
     0
102
RTVSPropertyOp25
 70
     0
102
RTVSPropertyOp26
 70
     0
102
RTVSPropertyOp27
 70
     0
102
RTVSPropertyOp28
 70
     1
102
RTVSPropertyOp29
 70
     1
102
RTVSPropertyOp30
 70
     1
102
RTVSPropertyOp31
 70
     1
102
RTVSPropertyOp32
 70
     1
102
RTVSPropertyOp33
 70
     1
102
RTVSPropertyOp34
 70
     1
102
RTVSPropertyOp35
 70
     1
102
RTVSPropertyOp36
 70
     1
102
RTVSPropertyOp37
 70
     0
102
RTVSPropertyOp38
 70
     0
102
RTVSPropertyOp39
 70
     0
102
RTVSPropertyOp40
 70
     0
102
RTVSPropertyOp41
 70
     0
102
RTVSPropertyOp42
 70
     0
102
RTVSPropertyOp43
 70
     0
102
RTVSPropertyOp44
 70
     0
102
RTVSPropertyOp45
 70
     1
102
RTVSPropertyOp46
 70
     0
102
RTVSPropertyOp47
 70
     0
102
RTVSPropertyOp48
 70
     0
102
RTVSPropertyOp49
 70
     1
102
RTVSPropertyOp50
 70
     0
102
RTVSPropertyOp51
 70
     0
102
RTVSPropertyOp52
 70
     0
102
RTVSPropertyOp53
 70
     0
102
RTVSPropertyOp54
 70
     0
102
RTVSPropertyOp55
 70
     1
102
RTVSPropertyOp56
 70
     0
102
RTVSPropertyOp57
 70
     0
102
RTVSPropertyOp58
 70
     0
102
RTVSPropertyOp59
 70
     0
102
RTVSPropertyOp60
 70
     0
102
RTVSPropertyOp61
 70
     0
102
RTVSPropertyOp62
 70
     0
  0
XRECORD
  5
517
102
{ACAD_REACTORS
330
516
102
}
330
516
100
AcDbXrecord
280
     1
102
RTVSPost2010Prop28
280
     0
102
RTVSPost2010PropOp28
 70
     1
102
RTVSPost2010Prop29
280
     1
102
RTVSPost2010PropOp29
 70
     1
102
RTVSPost2010Prop30
280
     1
102
RTVSPost2010PropOp30
 70
     1
102
RTVSPost2010Prop31
280
     0
102
RTVSPost2010PropOp31
 70
     1
102
RTVSPost2010Prop32
280
     0
102
RTVSPost2010PropOp32
 70
     1
102
RTVSPost2010Prop33
280
     0
102
RTVSPost2010PropOp33
 70
     1
102
RTVSPost2010Prop34
280
     0
102
RTVSPost2010PropOp34
 70
     1
102
RTVSPost2010Prop35
280
     0
102
RTVSPost2010PropOp35
 70
     1
102
RTVSPost2010Prop36
280
     0
102
RTVSPost2010PropOp36
 70
     1
102
RTVSPost2010Prop37
 90
       50
102
RTVSPost2010PropOp37
 70
     1
102
RTVSPost2010Prop38
140
0.0
102
RTVSPost2010PropOp38
 70
     1
102
RTVSPost2010Prop39
140
1.0
102
RTVSPost2010PropOp39
 70
     1
102
RTVSPost2010Prop40
 90
        0
102
RTVSPost2010PropOp40
 70
     1
102
RTVSPost2010Prop41ColorIndex
 90
       18
102
RTVSPost2010Prop41ColorRGB
 90
        0
102
RTVSPost2010PropOp41
 70
     1
102
RTVSPost2010Prop42
 90
       50
102
RTVSPost2010PropOp42
 70
     1
102
RTVSPost2010Prop43
 90
        3
102
RTVSPost2010PropOp43
 70
     1
102
RTVSPost2010Prop44ColorIndex
 90
        5
102
RTVSPost2010Prop44ColorRGB
 90
      255
102
RTVSPost2010PropOp44
 70
     1
102
RTVSPost2010Prop45
280
     0
102
RTVSPost2010PropOp45
 70
     1
102
RTVSPost2010Prop46
 90
       50
102
RTVSPost2010PropOp46
 70
     1
102
RTVSPost2010Prop47
 90
       50
102
RTVSPost2010PropOp47
 70
     1
102
RTVSPost2010Prop48
 90
       50
102
RTVSPost2010PropOp48
 70
     1
102
RTVSPost2010Prop49
280
     0
102
RTVSPost2010PropOp49
 70
     1
102
RTVSPost2010Prop50
 90
       50
102
RTVSPost2010PropOp50
 70
     1
102
RTVSPost2010Prop51ColorIndex
 90
      256
102
RTVSPost2010Prop51ColorRGB
 90
-16777216
102
RTVSPost2010PropOp51
 70
     0
102
RTVSPost2010Prop52
140
1.0
102
RTVSPost2010PropOp52
 70
     0
102
RTVSPost2010Prop53
 90
        2
102
RTVSPost2010PropOp53
 70
     1
102
RTVSPost2010Prop54
  1
strokes_ogs.tif
102
RTVSPost2010PropOp54
 70
     1
102
RTVSPost2010Prop55
280
     0
102
RTVSPost2010PropOp55
 70
     1
102
RTVSPost2010Prop56
140
1.0
102
RTVSPost2010PropOp56
 70
     1
102
RTVSPost2010Prop57
140
1.0
102
RTVSPost2010PropOp57
 70
     1
102
RTVSPropertyOp0
 70
     1
102
RTVSPropertyOp1
 70
     1
102
RTVSPropertyOp2
 70
     1
102
RTVSPropertyOp3
 70
     1
102
RTVSPropertyOp4
 70
     1
102
RTVSPropertyOp5
 70
     1
102
RTVSPropertyOp6
 70
     1
102
RTVSPropertyOp7
 70
     1
102
RTVSPropertyOp8
 70
     1
102
RTVSPropertyOp9
 70
     1
102
RTVSPropertyOp10
 70
     1
102
RTVSPropertyOp11
 70
     1
102
RTVSPropertyOp12
 70
     1
102
RTVSPropertyOp13
 70
     1
102
RTVSPropertyOp14
 70
     1
102
RTVSPropertyOp15
 70
     1
102
RTVSPropertyOp16
 70
     1
102
RTVSPropertyOp17
 70
     1
102
RTVSPropertyOp18
 70
     1
102
RTVSPropertyOp19
 70
     1
102
RTVSPropertyOp20
 70
     1
102
RTVSPropertyOp21
 70
     1
102
RTVSPropertyOp22
 70
     1
102
RTVSPropertyOp23
 70
     1
102
RTVSPropertyOp24
 70
     1
102
RTVSPropertyOp25
 70
     1
102
RTVSPropertyOp26
 70
     1
102
RTVSPropertyOp27
 70
     1
102
RTVSPropertyOp28
 70
     1
102
RTVSPropertyOp29
 70
     1
102
RTVSPropertyOp30
 70
     1
102
RTVSPropertyOp31
 70
     1
102
RTVSPropertyOp32
 70
     1
102
RTVSPropertyOp33
 70
     1
102
RTVSPropertyOp34
 70
     1
102
RTVSPropertyOp35
 70
     1
102
RTVSPropertyOp36
 70
     1
102
RTVSPropertyOp37
 70
     1
102
RTVSPropertyOp38
 70
     1
102
RTVSPropertyOp39
 70
     1
102
RTVSPropertyOp40
 70
     1
102
RTVSPropertyOp41
 70
     1
102
RTVSPropertyOp42
 70
     1
102
RTVSPropertyOp43
 70
     1
102
RTVSPropertyOp44
 70
     1
102
RTVSPropertyOp45
 70
     1
102
RTVSPropertyOp46
 70
     1
102
RTVSPropertyOp47
 70
     1
102
RTVSPropertyOp48
 70
     1
102
RTVSPropertyOp49
 70
     1
102
RTVSPropertyOp50
 70
     1
102
RTVSPropertyOp51
 70
     0
102
RTVSPropertyOp52
 70
     0
102
RTVSPropertyOp53
 70
     1
102
RTVSPropertyOp54
 70
     1
102
RTVSPropertyOp55
 70
     1
102
RTVSPropertyOp56
 70
     1
102
RTVSPropertyOp57
 70
     1
102
RTVSPropertyOp58
 70
     1
102
RTVSPropertyOp59
 70
     1
102
RTVSPropertyOp60
 70
     1
102
RTVSPropertyOp61
 70
     1
102
RTVSPropertyOp62
 70
     1
  0
XRECORD
  5
4FB
102
{ACAD_REACTORS
330
4FA
102
}
330
4FA
100
AcDbXrecord
280
     1
102
RTVSPost2010Prop28
280
     0
102
RTVSPost2010PropOp28
 70
     1
102
RTVSPost2010Prop29
280
     1
102
RTVSPost2010PropOp29
 70
     1
102
RTVSPost2010Prop30
280
     1
102
RTVSPost2010PropOp30
 70
     1
102
RTVSPost2010Prop31
280
     0
102
RTVSPost2010PropOp31
 70
     1
102
RTVSPost2010Prop32
280
     0
102
RTVSPost2010PropOp32
 70
     1
102
RTVSPost2010Prop33
280
     0
102
RTVSPost2010PropOp33
 70
     1
102
RTVSPost2010Prop34
280
     0
102
RTVSPost2010PropOp34
 70
     1
102
RTVSPost2010Prop35
280
     0
102
RTVSPost2010PropOp35
 70
     1
102
RTVSPost2010Prop36
280
     0
102
RTVSPost2010PropOp36
 70
     1
102
RTVSPost2010Prop37
 90
       50
102
RTVSPost2010PropOp37
 70
     1
102
RTVSPost2010Prop38
140
0.0
102
RTVSPost2010PropOp38
 70
     1
102
RTVSPost2010Prop39
140
1.0
102
RTVSPost2010PropOp39
 70
     1
102
RTVSPost2010Prop40
 90
        0
102
RTVSPost2010PropOp40
 70
     1
102
RTVSPost2010Prop41ColorIndex
 90
       18
102
RTVSPost2010Prop41ColorRGB
 90
        0
102
RTVSPost2010PropOp41
 70
     1
102
RTVSPost2010Prop42
 90
       50
102
RTVSPost2010PropOp42
 70
     1
102
RTVSPost2010Prop43
 90
        3
102
RTVSPost2010PropOp43
 70
     1
102
RTVSPost2010Prop44ColorIndex
 90
        5
102
RTVSPost2010Prop44ColorRGB
 90
      255
102
RTVSPost2010PropOp44
 70
     1
102
RTVSPost2010Prop45
280
     0
102
RTVSPost2010PropOp45
 70
     1
102
RTVSPost2010Prop46
 90
       50
102
RTVSPost2010PropOp46
 70
     1
102
RTVSPost2010Prop47
 90
       50
102
RTVSPost2010PropOp47
 70
     1
102
RTVSPost2010Prop48
 90
       50
102
RTVSPost2010PropOp48
 70
     1
102
RTVSPost2010Prop49
280
     0
102
RTVSPost2010PropOp49
 70
     1
102
RTVSPost2010Prop50
 90
       50
102
RTVSPost2010PropOp50
 70
     1
102
RTVSPost2010Prop51ColorIndex
 90
      256
102
RTVSPost2010Prop51ColorRGB
 90
-16777216
102
RTVSPost2010PropOp51
 70
     0
102
RTVSPost2010Prop52
140
1.0
102
RTVSPost2010PropOp52
 70
     0
102
RTVSPost2010Prop53
 90
        2
102
RTVSPost2010PropOp53
 70
     1
102
RTVSPost2010Prop54
  1
strokes_ogs.tif
102
RTVSPost2010PropOp54
 70
     1
102
RTVSPost2010Prop55
280
     0
102
RTVSPost2010PropOp55
 70
     1
102
RTVSPost2010Prop56
140
1.0
102
RTVSPost2010PropOp56
 70
     1
102
RTVSPost2010Prop57
140
1.0
102
RTVSPost2010PropOp57
 70
     1
102
RTVSPropertyOp0
 70
     1
102
RTVSPropertyOp1
 70
     1
102
RTVSPropertyOp2
 70
     1
102
RTVSPropertyOp3
 70
     1
102
RTVSPropertyOp4
 70
     1
102
RTVSPropertyOp5
 70
     1
102
RTVSPropertyOp6
 70
     1
102
RTVSPropertyOp7
 70
     1
102
RTVSPropertyOp8
 70
     1
102
RTVSPropertyOp9
 70
     1
102
RTVSPropertyOp10
 70
     1
102
RTVSPropertyOp11
 70
     1
102
RTVSPropertyOp12
 70
     1
102
RTVSPropertyOp13
 70
     1
102
RTVSPropertyOp14
 70
     1
102
RTVSPropertyOp15
 70
     1
102
RTVSPropertyOp16
 70
     1
102
RTVSPropertyOp17
 70
     1
102
RTVSPropertyOp18
 70
     1
102
RTVSPropertyOp19
 70
     1
102
RTVSPropertyOp20
 70
     1
102
RTVSPropertyOp21
 70
     1
102
RTVSPropertyOp22
 70
     1
102
RTVSPropertyOp23
 70
     1
102
RTVSPropertyOp24
 70
     1
102
RTVSPropertyOp25
 70
     1
102
RTVSPropertyOp26
 70
     1
102
RTVSPropertyOp27
 70
     1
102
RTVSPropertyOp28
 70
     1
102
RTVSPropertyOp29
 70
     1
102
RTVSPropertyOp30
 70
     1
102
RTVSPropertyOp31
 70
     1
102
RTVSPropertyOp32
 70
     1
102
RTVSPropertyOp33
 70
     1
102
RTVSPropertyOp34
 70
     1
102
RTVSPropertyOp35
 70
     1
102
RTVSPropertyOp36
 70
     1
102
RTVSPropertyOp37
 70
     1
102
RTVSPropertyOp38
 70
     1
102
RTVSPropertyOp39
 70
     1
102
RTVSPropertyOp40
 70
     1
102
RTVSPropertyOp41
 70
     1
102
RTVSPropertyOp42
 70
     1
102
RTVSPropertyOp43
 70
     1
102
RTVSPropertyOp44
 70
     1
102
RTVSPropertyOp45
 70
     1
102
RTVSPropertyOp46
 70
     1
102
RTVSPropertyOp47
 70
     1
102
RTVSPropertyOp48
 70
     1
102
RTVSPropertyOp49
 70
     1
102
RTVSPropertyOp50
 70
     1
102
RTVSPropertyOp51
 70
     0
102
RTVSPropertyOp52
 70
     0
102
RTVSPropertyOp53
 70
     1
102
RTVSPropertyOp54
 70
     1
102
RTVSPropertyOp55
 70
     1
102
RTVSPropertyOp56
 70
     1
102
RTVSPropertyOp57
 70
     1
102
RTVSPropertyOp58
 70
     1
102
RTVSPropertyOp59
 70
     1
102
RTVSPropertyOp60
 70
     1
102
RTVSPropertyOp61
 70
     1
102
RTVSPropertyOp62
 70
     1
  0
XRECORD
  5
4FD
102
{ACAD_REACTORS
330
4FC
102
}
330
4FC
100
AcDbXrecord
280
     1
102
RTVSPost2010Prop28
280
     0
102
RTVSPost2010PropOp28
 70
     1
102
RTVSPost2010Prop29
280
     1
102
RTVSPost2010PropOp29
 70
     1
102
RTVSPost2010Prop30
280
     1
102
RTVSPost2010PropOp30
 70
     1
102
RTVSPost2010Prop31
280
     0
102
RTVSPost2010PropOp31
 70
     1
102
RTVSPost2010Prop32
280
     0
102
RTVSPost2010PropOp32
 70
     1
102
RTVSPost2010Prop33
280
     0
102
RTVSPost2010PropOp33
 70
     1
102
RTVSPost2010Prop34
280
     0
102
RTVSPost2010PropOp34
 70
     1
102
RTVSPost2010Prop35
280
     0
102
RTVSPost2010PropOp35
 70
     1
102
RTVSPost2010Prop36
280
     0
102
RTVSPost2010PropOp36
 70
     1
102
RTVSPost2010Prop37
 90
       50
102
RTVSPost2010PropOp37
 70
     1
102
RTVSPost2010Prop38
140
0.0
102
RTVSPost2010PropOp38
 70
     1
102
RTVSPost2010Prop39
140
1.0
102
RTVSPost2010PropOp39
 70
     1
102
RTVSPost2010Prop40
 90
        0
102
RTVSPost2010PropOp40
 70
     1
102
RTVSPost2010Prop41ColorIndex
 90
       18
102
RTVSPost2010Prop41ColorRGB
 90
        0
102
RTVSPost2010PropOp41
 70
     1
102
RTVSPost2010Prop42
 90
       50
102
RTVSPost2010PropOp42
 70
     1
102
RTVSPost2010Prop43
 90
        3
102
RTVSPost2010PropOp43
 70
     1
102
RTVSPost2010Prop44ColorIndex
 90
        5
102
RTVSPost2010Prop44ColorRGB
 90
      255
102
RTVSPost2010PropOp44
 70
     1
102
RTVSPost2010Prop45
280
     0
102
RTVSPost2010PropOp45
 70
     1
102
RTVSPost2010Prop46
 90
       50
102
RTVSPost2010PropOp46
 70
     1
102
RTVSPost2010Prop47
 90
       50
102
RTVSPost2010PropOp47
 70
     1
102
RTVSPost2010Prop48
 90
       50
102
RTVSPost2010PropOp48
 70
     1
102
RTVSPost2010Prop49
280
     0
102
RTVSPost2010PropOp49
 70
     1
102
RTVSPost2010Prop50
 90
       50
102
RTVSPost2010PropOp50
 70
     1
102
RTVSPost2010Prop51ColorIndex
 90
      256
102
RTVSPost2010Prop51ColorRGB
 90
-16777216
102
RTVSPost2010PropOp51
 70
     0
102
RTVSPost2010Prop52
140
1.0
102
RTVSPost2010PropOp52
 70
     0
102
RTVSPost2010Prop53
 90
        2
102
RTVSPost2010PropOp53
 70
     1
102
RTVSPost2010Prop54
  1
strokes_ogs.tif
102
RTVSPost2010PropOp54
 70
     1
102
RTVSPost2010Prop55
280
     0
102
RTVSPost2010PropOp55
 70
     1
102
RTVSPost2010Prop56
140
1.0
102
RTVSPost2010PropOp56
 70
     1
102
RTVSPost2010Prop57
140
1.0
102
RTVSPost2010PropOp57
 70
     1
102
RTVSPropertyOp0
 70
     1
102
RTVSPropertyOp1
 70
     1
102
RTVSPropertyOp2
 70
     1
102
RTVSPropertyOp3
 70
     1
102
RTVSPropertyOp4
 70
     1
102
RTVSPropertyOp5
 70
     1
102
RTVSPropertyOp6
 70
     1
102
RTVSPropertyOp7
 70
     1
102
RTVSPropertyOp8
 70
     1
102
RTVSPropertyOp9
 70
     1
102
RTVSPropertyOp10
 70
     1
102
RTVSPropertyOp11
 70
     1
102
RTVSPropertyOp12
 70
     1
102
RTVSPropertyOp13
 70
     1
102
RTVSPropertyOp14
 70
     1
102
RTVSPropertyOp15
 70
     1
102
RTVSPropertyOp16
 70
     1
102
RTVSPropertyOp17
 70
     1
102
RTVSPropertyOp18
 70
     1
102
RTVSPropertyOp19
 70
     1
102
RTVSPropertyOp20
 70
     1
102
RTVSPropertyOp21
 70
     1
102
RTVSPropertyOp22
 70
     1
102
RTVSPropertyOp23
 70
     1
102
RTVSPropertyOp24
 70
     1
102
RTVSPropertyOp25
 70
     1
102
RTVSPropertyOp26
 70
     1
102
RTVSPropertyOp27
 70
     1
102
RTVSPropertyOp28
 70
     1
102
RTVSPropertyOp29
 70
     1
102
RTVSPropertyOp30
 70
     1
102
RTVSPropertyOp31
 70
     1
102
RTVSPropertyOp32
 70
     1
102
RTVSPropertyOp33
 70
     1
102
RTVSPropertyOp34
 70
     1
102
RTVSPropertyOp35
 70
     1
102
RTVSPropertyOp36
 70
     1
102
RTVSPropertyOp37
 70
     1
102
RTVSPropertyOp38
 70
     1
102
RTVSPropertyOp39
 70
     1
102
RTVSPropertyOp40
 70
     1
102
RTVSPropertyOp41
 70
     1
102
RTVSPropertyOp42
 70
     1
102
RTVSPropertyOp43
 70
     1
102
RTVSPropertyOp44
 70
     1
102
RTVSPropertyOp45
 70
     1
102
RTVSPropertyOp46
 70
     1
102
RTVSPropertyOp47
 70
     1
102
RTVSPropertyOp48
 70
     1
102
RTVSPropertyOp49
 70
     1
102
RTVSPropertyOp50
 70
     1
102
RTVSPropertyOp51
 70
     0
102
RTVSPropertyOp52
 70
     0
102
RTVSPropertyOp53
 70
     1
102
RTVSPropertyOp54
 70
     1
102
RTVSPropertyOp55
 70
     1
102
RTVSPropertyOp56
 70
     1
102
RTVSPropertyOp57
 70
     1
102
RTVSPropertyOp58
 70
     1
102
RTVSPropertyOp59
 70
     1
102
RTVSPropertyOp60
 70
     1
102
RTVSPropertyOp61
 70
     1
102
RTVSPropertyOp62
 70
     1
  0
XRECORD
  5
4FF
102
{ACAD_REACTORS
330
4FE
102
}
330
4FE
100
AcDbXrecord
280
     1
102
RTVSPost2010Prop28
280
     0
102
RTVSPost2010PropOp28
 70
     1
102
RTVSPost2010Prop29
280
     1
102
RTVSPost2010PropOp29
 70
     1
102
RTVSPost2010Prop30
280
     1
102
RTVSPost2010PropOp30
 70
     1
102
RTVSPost2010Prop31
280
     0
102
RTVSPost2010PropOp31
 70
     1
102
RTVSPost2010Prop32
280
     0
102
RTVSPost2010PropOp32
 70
     1
102
RTVSPost2010Prop33
280
     0
102
RTVSPost2010PropOp33
 70
     1
102
RTVSPost2010Prop34
280
     0
102
RTVSPost2010PropOp34
 70
     1
102
RTVSPost2010Prop35
280
     0
102
RTVSPost2010PropOp35
 70
     1
102
RTVSPost2010Prop36
280
     0
102
RTVSPost2010PropOp36
 70
     1
102
RTVSPost2010Prop37
 90
       50
102
RTVSPost2010PropOp37
 70
     1
102
RTVSPost2010Prop38
140
0.0
102
RTVSPost2010PropOp38
 70
     1
102
RTVSPost2010Prop39
140
1.0
102
RTVSPost2010PropOp39
 70
     1
102
RTVSPost2010Prop40
 90
        0
102
RTVSPost2010PropOp40
 70
     1
102
RTVSPost2010Prop41ColorIndex
 90
       18
102
RTVSPost2010Prop41ColorRGB
 90
        0
102
RTVSPost2010PropOp41
 70
     1
102
RTVSPost2010Prop42
 90
       50
102
RTVSPost2010PropOp42
 70
     1
102
RTVSPost2010Prop43
 90
        3
102
RTVSPost2010PropOp43
 70
     1
102
RTVSPost2010Prop44ColorIndex
 90
        5
102
RTVSPost2010Prop44ColorRGB
 90
      255
102
RTVSPost2010PropOp44
 70
     1
102
RTVSPost2010Prop45
280
     0
102
RTVSPost2010PropOp45
 70
     1
102
RTVSPost2010Prop46
 90
       50
102
RTVSPost2010PropOp46
 70
     1
102
RTVSPost2010Prop47
 90
       50
102
RTVSPost2010PropOp47
 70
     1
102
RTVSPost2010Prop48
 90
       50
102
RTVSPost2010PropOp48
 70
     1
102
RTVSPost2010Prop49
280
     0
102
RTVSPost2010PropOp49
 70
     1
102
RTVSPost2010Prop50
 90
       50
102
RTVSPost2010PropOp50
 70
     1
102
RTVSPost2010Prop51ColorIndex
 90
      256
102
RTVSPost2010Prop51ColorRGB
 90
-16777216
102
RTVSPost2010PropOp51
 70
     0
102
RTVSPost2010Prop52
140
1.0
102
RTVSPost2010PropOp52
 70
     0
102
RTVSPost2010Prop53
 90
        2
102
RTVSPost2010PropOp53
 70
     1
102
RTVSPost2010Prop54
  1
strokes_ogs.tif
102
RTVSPost2010PropOp54
 70
     1
102
RTVSPost2010Prop55
280
     0
102
RTVSPost2010PropOp55
 70
     1
102
RTVSPost2010Prop56
140
1.0
102
RTVSPost2010PropOp56
 70
     1
102
RTVSPost2010Prop57
140
1.0
102
RTVSPost2010PropOp57
 70
     1
102
RTVSPropertyOp0
 70
     1
102
RTVSPropertyOp1
 70
     1
102
RTVSPropertyOp2
 70
     1
102
RTVSPropertyOp3
 70
     1
102
RTVSPropertyOp4
 70
     1
102
RTVSPropertyOp5
 70
     1
102
RTVSPropertyOp6
 70
     1
102
RTVSPropertyOp7
 70
     1
102
RTVSPropertyOp8
 70
     1
102
RTVSPropertyOp9
 70
     1
102
RTVSPropertyOp10
 70
     1
102
RTVSPropertyOp11
 70
     1
102
RTVSPropertyOp12
 70
     1
102
RTVSPropertyOp13
 70
     1
102
RTVSPropertyOp14
 70
     1
102
RTVSPropertyOp15
 70
     1
102
RTVSPropertyOp16
 70
     1
102
RTVSPropertyOp17
 70
     1
102
RTVSPropertyOp18
 70
     1
102
RTVSPropertyOp19
 70
     1
102
RTVSPropertyOp20
 70
     1
102
RTVSPropertyOp21
 70
     1
102
RTVSPropertyOp22
 70
     1
102
RTVSPropertyOp23
 70
     1
102
RTVSPropertyOp24
 70
     1
102
RTVSPropertyOp25
 70
     1
102
RTVSPropertyOp26
 70
     1
102
RTVSPropertyOp27
 70
     1
102
RTVSPropertyOp28
 70
     1
102
RTVSPropertyOp29
 70
     1
102
RTVSPropertyOp30
 70
     1
102
RTVSPropertyOp31
 70
     1
102
RTVSPropertyOp32
 70
     1
102
RTVSPropertyOp33
 70
     1
102
RTVSPropertyOp34
 70
     1
102
RTVSPropertyOp35
 70
     1
102
RTVSPropertyOp36
 70
     1
102
RTVSPropertyOp37
 70
     1
102
RTVSPropertyOp38
 70
     1
102
RTVSPropertyOp39
 70
     1
102
RTVSPropertyOp40
 70
     1
102
RTVSPropertyOp41
 70
     1
102
RTVSPropertyOp42
 70
     1
102
RTVSPropertyOp43
 70
     1
102
RTVSPropertyOp44
 70
     1
102
RTVSPropertyOp45
 70
     1
102
RTVSPropertyOp46
 70
     1
102
RTVSPropertyOp47
 70
     1
102
RTVSPropertyOp48
 70
     1
102
RTVSPropertyOp49
 70
     1
102
RTVSPropertyOp50
 70
     1
102
RTVSPropertyOp51
 70
     0
102
RTVSPropertyOp52
 70
     0
102
RTVSPropertyOp53
 70
     1
102
RTVSPropertyOp54
 70
     1
102
RTVSPropertyOp55
 70
     1
102
RTVSPropertyOp56
 70
     1
102
RTVSPropertyOp57
 70
     1
102
RTVSPropertyOp58
 70
     1
102
RTVSPropertyOp59
 70
     1
102
RTVSPropertyOp60
 70
     1
102
RTVSPropertyOp61
 70
     1
102
RTVSPropertyOp62
 70
     1
  0
XRECORD
  5
501
102
{ACAD_REACTORS
330
500
102
}
330
500
100
AcDbXrecord
280
     1
102
RTVSPost2010Prop28
280
     0
102
RTVSPost2010PropOp28
 70
     1
102
RTVSPost2010Prop29
280
     1
102
RTVSPost2010PropOp29
 70
     1
102
RTVSPost2010Prop30
280
     1
102
RTVSPost2010PropOp30
 70
     1
102
RTVSPost2010Prop31
280
     0
102
RTVSPost2010PropOp31
 70
     1
102
RTVSPost2010Prop32
280
     0
102
RTVSPost2010PropOp32
 70
     1
102
RTVSPost2010Prop33
280
     0
102
RTVSPost2010PropOp33
 70
     1
102
RTVSPost2010Prop34
280
     0
102
RTVSPost2010PropOp34
 70
     1
102
RTVSPost2010Prop35
280
     0
102
RTVSPost2010PropOp35
 70
     1
102
RTVSPost2010Prop36
280
     0
102
RTVSPost2010PropOp36
 70
     1
102
RTVSPost2010Prop37
 90
       50
102
RTVSPost2010PropOp37
 70
     1
102
RTVSPost2010Prop38
140
0.0
102
RTVSPost2010PropOp38
 70
     1
102
RTVSPost2010Prop39
140
1.0
102
RTVSPost2010PropOp39
 70
     1
102
RTVSPost2010Prop40
 90
        0
102
RTVSPost2010PropOp40
 70
     1
102
RTVSPost2010Prop41ColorIndex
 90
       18
102
RTVSPost2010Prop41ColorRGB
 90
        0
102
RTVSPost2010PropOp41
 70
     1
102
RTVSPost2010Prop42
 90
       50
102
RTVSPost2010PropOp42
 70
     1
102
RTVSPost2010Prop43
 90
        3
102
RTVSPost2010PropOp43
 70
     1
102
RTVSPost2010Prop44ColorIndex
 90
        5
102
RTVSPost2010Prop44ColorRGB
 90
      255
102
RTVSPost2010PropOp44
 70
     1
102
RTVSPost2010Prop45
280
     0
102
RTVSPost2010PropOp45
 70
     1
102
RTVSPost2010Prop46
 90
       50
102
RTVSPost2010PropOp46
 70
     1
102
RTVSPost2010Prop47
 90
       50
102
RTVSPost2010PropOp47
 70
     1
102
RTVSPost2010Prop48
 90
       50
102
RTVSPost2010PropOp48
 70
     1
102
RTVSPost2010Prop49
280
     0
102
RTVSPost2010PropOp49
 70
     1
102
RTVSPost2010Prop50
 90
       50
102
RTVSPost2010PropOp50
 70
     1
102
RTVSPost2010Prop51ColorIndex
 90
      256
102
RTVSPost2010Prop51ColorRGB
 90
-16777216
102
RTVSPost2010PropOp51
 70
     0
102
RTVSPost2010Prop52
140
1.0
102
RTVSPost2010PropOp52
 70
     0
102
RTVSPost2010Prop53
 90
        2
102
RTVSPost2010PropOp53
 70
     1
102
RTVSPost2010Prop54
  1
strokes_ogs.tif
102
RTVSPost2010PropOp54
 70
     1
102
RTVSPost2010Prop55
280
     0
102
RTVSPost2010PropOp55
 70
     1
102
RTVSPost2010Prop56
140
1.0
102
RTVSPost2010PropOp56
 70
     1
102
RTVSPost2010Prop57
140
1.0
102
RTVSPost2010PropOp57
 70
     1
102
RTVSPropertyOp0
 70
     1
102
RTVSPropertyOp1
 70
     1
102
RTVSPropertyOp2
 70
     1
102
RTVSPropertyOp3
 70
     1
102
RTVSPropertyOp4
 70
     1
102
RTVSPropertyOp5
 70
     1
102
RTVSPropertyOp6
 70
     1
102
RTVSPropertyOp7
 70
     1
102
RTVSPropertyOp8
 70
     1
102
RTVSPropertyOp9
 70
     1
102
RTVSPropertyOp10
 70
     1
102
RTVSPropertyOp11
 70
     1
102
RTVSPropertyOp12
 70
     1
102
RTVSPropertyOp13
 70
     1
102
RTVSPropertyOp14
 70
     1
102
RTVSPropertyOp15
 70
     1
102
RTVSPropertyOp16
 70
     1
102
RTVSPropertyOp17
 70
     1
102
RTVSPropertyOp18
 70
     1
102
RTVSPropertyOp19
 70
     1
102
RTVSPropertyOp20
 70
     1
102
RTVSPropertyOp21
 70
     1
102
RTVSPropertyOp22
 70
     1
102
RTVSPropertyOp23
 70
     1
102
RTVSPropertyOp24
 70
     1
102
RTVSPropertyOp25
 70
     1
102
RTVSPropertyOp26
 70
     1
102
RTVSPropertyOp27
 70
     1
102
RTVSPropertyOp28
 70
     1
102
RTVSPropertyOp29
 70
     1
102
RTVSPropertyOp30
 70
     1
102
RTVSPropertyOp31
 70
     1
102
RTVSPropertyOp32
 70
     1
102
RTVSPropertyOp33
 70
     1
102
RTVSPropertyOp34
 70
     1
102
RTVSPropertyOp35
 70
     1
102
RTVSPropertyOp36
 70
     1
102
RTVSPropertyOp37
 70
     1
102
RTVSPropertyOp38
 70
     1
102
RTVSPropertyOp39
 70
     1
102
RTVSPropertyOp40
 70
     1
102
RTVSPropertyOp41
 70
     1
102
RTVSPropertyOp42
 70
     1
102
RTVSPropertyOp43
 70
     1
102
RTVSPropertyOp44
 70
     1
102
RTVSPropertyOp45
 70
     1
102
RTVSPropertyOp46
 70
     1
102
RTVSPropertyOp47
 70
     1
102
RTVSPropertyOp48
 70
     1
102
RTVSPropertyOp49
 70
     1
102
RTVSPropertyOp50
 70
     1
102
RTVSPropertyOp51
 70
     0
102
RTVSPropertyOp52
 70
     0
102
RTVSPropertyOp53
 70
     1
102
RTVSPropertyOp54
 70
     1
102
RTVSPropertyOp55
 70
     1
102
RTVSPropertyOp56
 70
     1
102
RTVSPropertyOp57
 70
     1
102
RTVSPropertyOp58
 70
     1
102
RTVSPropertyOp59
 70
     1
102
RTVSPropertyOp60
 70
     1
102
RTVSPropertyOp61
 70
     1
102
RTVSPropertyOp62
 70
     1
  0
XRECORD
  5
509
102
{ACAD_REACTORS
330
508
102
}
330
508
100
AcDbXrecord
280
     1
102
RTVSPost2010Prop28
280
     0
102
RTVSPost2010PropOp28
 70
     1
102
RTVSPost2010Prop29
280
     1
102
RTVSPost2010PropOp29
 70
     1
102
RTVSPost2010Prop30
280
     1
102
RTVSPost2010PropOp30
 70
     1
102
RTVSPost2010Prop31
280
     0
102
RTVSPost2010PropOp31
 70
     1
102
RTVSPost2010Prop32
280
     0
102
RTVSPost2010PropOp32
 70
     1
102
RTVSPost2010Prop33
280
     0
102
RTVSPost2010PropOp33
 70
     1
102
RTVSPost2010Prop34
280
     0
102
RTVSPost2010PropOp34
 70
     1
102
RTVSPost2010Prop35
280
     0
102
RTVSPost2010PropOp35
 70
     1
102
RTVSPost2010Prop36
280
     0
102
RTVSPost2010PropOp36
 70
     1
102
RTVSPost2010Prop37
 90
       50
102
RTVSPost2010PropOp37
 70
     1
102
RTVSPost2010Prop38
140
0.0
102
RTVSPost2010PropOp38
 70
     1
102
RTVSPost2010Prop39
140
1.0
102
RTVSPost2010PropOp39
 70
     1
102
RTVSPost2010Prop40
 90
        0
102
RTVSPost2010PropOp40
 70
     1
102
RTVSPost2010Prop41ColorIndex
 90
       18
102
RTVSPost2010Prop41ColorRGB
 90
        0
102
RTVSPost2010PropOp41
 70
     1
102
RTVSPost2010Prop42
 90
       50
102
RTVSPost2010PropOp42
 70
     1
102
RTVSPost2010Prop43
 90
        3
102
RTVSPost2010PropOp43
 70
     1
102
RTVSPost2010Prop44ColorIndex
 90
        5
102
RTVSPost2010Prop44ColorRGB
 90
      255
102
RTVSPost2010PropOp44
 70
     1
102
RTVSPost2010Prop45
280
     0
102
RTVSPost2010PropOp45
 70
     1
102
RTVSPost2010Prop46
 90
       50
102
RTVSPost2010PropOp46
 70
     1
102
RTVSPost2010Prop47
 90
       50
102
RTVSPost2010PropOp47
 70
     1
102
RTVSPost2010Prop48
 90
       50
102
RTVSPost2010PropOp48
 70
     1
102
RTVSPost2010Prop49
280
     0
102
RTVSPost2010PropOp49
 70
     1
102
RTVSPost2010Prop50
 90
       50
102
RTVSPost2010PropOp50
 70
     1
102
RTVSPost2010Prop51ColorIndex
 90
      256
102
RTVSPost2010Prop51ColorRGB
 90
-16777216
102
RTVSPost2010PropOp51
 70
     0
102
RTVSPost2010Prop52
140
1.0
102
RTVSPost2010PropOp52
 70
     0
102
RTVSPost2010Prop53
 90
        2
102
RTVSPost2010PropOp53
 70
     1
102
RTVSPost2010Prop54
  1
strokes_ogs.tif
102
RTVSPost2010PropOp54
 70
     1
102
RTVSPost2010Prop55
280
     0
102
RTVSPost2010PropOp55
 70
     1
102
RTVSPost2010Prop56
140
1.0
102
RTVSPost2010PropOp56
 70
     1
102
RTVSPost2010Prop57
140
1.0
102
RTVSPost2010PropOp57
 70
     1
102
RTVSPropertyOp0
 70
     1
102
RTVSPropertyOp1
 70
     1
102
RTVSPropertyOp2
 70
     1
102
RTVSPropertyOp3
 70
     1
102
RTVSPropertyOp4
 70
     1
102
RTVSPropertyOp5
 70
     1
102
RTVSPropertyOp6
 70
     1
102
RTVSPropertyOp7
 70
     1
102
RTVSPropertyOp8
 70
     1
102
RTVSPropertyOp9
 70
     1
102
RTVSPropertyOp10
 70
     1
102
RTVSPropertyOp11
 70
     1
102
RTVSPropertyOp12
 70
     1
102
RTVSPropertyOp13
 70
     1
102
RTVSPropertyOp14
 70
     1
102
RTVSPropertyOp15
 70
     1
102
RTVSPropertyOp16
 70
     1
102
RTVSPropertyOp17
 70
     1
102
RTVSPropertyOp18
 70
     1
102
RTVSPropertyOp19
 70
     1
102
RTVSPropertyOp20
 70
     1
102
RTVSPropertyOp21
 70
     1
102
RTVSPropertyOp22
 70
     1
102
RTVSPropertyOp23
 70
     1
102
RTVSPropertyOp24
 70
     1
102
RTVSPropertyOp25
 70
     1
102
RTVSPropertyOp26
 70
     1
102
RTVSPropertyOp27
 70
     1
102
RTVSPropertyOp28
 70
     1
102
RTVSPropertyOp29
 70
     1
102
RTVSPropertyOp30
 70
     1
102
RTVSPropertyOp31
 70
     1
102
RTVSPropertyOp32
 70
     1
102
RTVSPropertyOp33
 70
     1
102
RTVSPropertyOp34
 70
     1
102
RTVSPropertyOp35
 70
     1
102
RTVSPropertyOp36
 70
     1
102
RTVSPropertyOp37
 70
     1
102
RTVSPropertyOp38
 70
     1
102
RTVSPropertyOp39
 70
     1
102
RTVSPropertyOp40
 70
     1
102
RTVSPropertyOp41
 70
     1
102
RTVSPropertyOp42
 70
     1
102
RTVSPropertyOp43
 70
     1
102
RTVSPropertyOp44
 70
     1
102
RTVSPropertyOp45
 70
     1
102
RTVSPropertyOp46
 70
     1
102
RTVSPropertyOp47
 70
     1
102
RTVSPropertyOp48
 70
     1
102
RTVSPropertyOp49
 70
     1
102
RTVSPropertyOp50
 70
     1
102
RTVSPropertyOp51
 70
     0
102
RTVSPropertyOp52
 70
     0
102
RTVSPropertyOp53
 70
     1
102
RTVSPropertyOp54
 70
     1
102
RTVSPropertyOp55
 70
     1
102
RTVSPropertyOp56
 70
     1
102
RTVSPropertyOp57
 70
     1
102
RTVSPropertyOp58
 70
     1
102
RTVSPropertyOp59
 70
     1
102
RTVSPropertyOp60
 70
     1
102
RTVSPropertyOp61
 70
     1
102
RTVSPropertyOp62
 70
     1
  0
XRECORD
  5
525
102
{ACAD_REACTORS
330
524
102
}
330
524
100
AcDbXrecord
280
     1
102
RTVSPost2010Prop28
280
     0
102
RTVSPost2010PropOp28
 70
     1
102
RTVSPost2010Prop29
280
     1
102
RTVSPost2010PropOp29
 70
     1
102
RTVSPost2010Prop30
280
     1
102
RTVSPost2010PropOp30
 70
     1
102
RTVSPost2010Prop31
280
     0
102
RTVSPost2010PropOp31
 70
     1
102
RTVSPost2010Prop32
280
     0
102
RTVSPost2010PropOp32
 70
     1
102
RTVSPost2010Prop33
280
     0
102
RTVSPost2010PropOp33
 70
     1
102
RTVSPost2010Prop34
280
     0
102
RTVSPost2010PropOp34
 70
     1
102
RTVSPost2010Prop35
280
     0
102
RTVSPost2010PropOp35
 70
     1
102
RTVSPost2010Prop36
280
     0
102
RTVSPost2010PropOp36
 70
     1
102
RTVSPost2010Prop37
 90
       50
102
RTVSPost2010PropOp37
 70
     0
102
RTVSPost2010Prop38
140
0.0
102
RTVSPost2010PropOp38
 70
     0
102
RTVSPost2010Prop39
140
1.0
102
RTVSPost2010PropOp39
 70
     0
102
RTVSPost2010Prop40
 90
        0
102
RTVSPost2010PropOp40
 70
     0
102
RTVSPost2010Prop41ColorIndex
 90
       18
102
RTVSPost2010Prop41ColorRGB
 90
        0
102
RTVSPost2010PropOp41
 70
     0
102
RTVSPost2010Prop42
 90
       50
102
RTVSPost2010PropOp42
 70
     0
102
RTVSPost2010Prop43
 90
        3
102
RTVSPost2010PropOp43
 70
     0
102
RTVSPost2010Prop44ColorIndex
 90
        5
102
RTVSPost2010Prop44ColorRGB
 90
      255
102
RTVSPost2010PropOp44
 70
     0
102
RTVSPost2010Prop45
280
     0
102
RTVSPost2010PropOp45
 70
     1
102
RTVSPost2010Prop46
 90
       50
102
RTVSPost2010PropOp46
 70
     0
102
RTVSPost2010Prop47
 90
       50
102
RTVSPost2010PropOp47
 70
     0
102
RTVSPost2010Prop48
 90
       50
102
RTVSPost2010PropOp48
 70
     0
102
RTVSPost2010Prop49
280
     0
102
RTVSPost2010PropOp49
 70
     1
102
RTVSPost2010Prop50
 90
       50
102
RTVSPost2010PropOp50
 70
     0
102
RTVSPost2010Prop51ColorIndex
 90
      256
102
RTVSPost2010Prop51ColorRGB
 90
-16777216
102
RTVSPost2010PropOp51
 70
     0
102
RTVSPost2010Prop52
140
1.0
102
RTVSPost2010PropOp52
 70
     0
102
RTVSPost2010Prop53
 90
        2
102
RTVSPost2010PropOp53
 70
     0
102
RTVSPost2010Prop54
  1
strokes_ogs.tif
102
RTVSPost2010PropOp54
 70
     0
102
RTVSPost2010Prop55
280
     0
102
RTVSPost2010PropOp55
 70
     1
102
RTVSPost2010Prop56
140
1.0
102
RTVSPost2010PropOp56
 70
     0
102
RTVSPost2010Prop57
140
1.0
102
RTVSPost2010PropOp57
 70
     0
102
RTVSPropertyOp0
 70
     0
102
RTVSPropertyOp1
 70
     0
102
RTVSPropertyOp2
 70
     0
102
RTVSPropertyOp3
 70
     0
102
RTVSPropertyOp4
 70
     0
102
RTVSPropertyOp5
 70
     0
102
RTVSPropertyOp6
 70
     0
102
RTVSPropertyOp7
 70
     0
102
RTVSPropertyOp8
 70
     0
102
RTVSPropertyOp9
 70
     0
102
RTVSPropertyOp10
 70
     0
102
RTVSPropertyOp11
 70
     0
102
RTVSPropertyOp12
 70
     0
102
RTVSPropertyOp13
 70
     0
102
RTVSPropertyOp14
 70
     2
102
RTVSPropertyOp15
 70
     0
102
RTVSPropertyOp16
 70
     0
102
RTVSPropertyOp17
 70
     0
102
RTVSPropertyOp18
 70
     0
102
RTVSPropertyOp19
 70
     0
102
RTVSPropertyOp20
 70
     0
102
RTVSPropertyOp21
 70
     0
102
RTVSPropertyOp22
 70
     0
102
RTVSPropertyOp23
 70
     0
102
RTVSPropertyOp24
 70
     0
102
RTVSPropertyOp25
 70
     0
102
RTVSPropertyOp26
 70
     0
102
RTVSPropertyOp27
 70
     0
102
RTVSPropertyOp28
 70
     1
102
RTVSPropertyOp29
 70
     1
102
RTVSPropertyOp30
 70
     1
102
RTVSPropertyOp31
 70
     1
102
RTVSPropertyOp32
 70
     1
102
RTVSPropertyOp33
 70
     1
102
RTVSPropertyOp34
 70
     1
102
RTVSPropertyOp35
 70
     1
102
RTVSPropertyOp36
 70
     1
102
RTVSPropertyOp37
 70
     0
102
RTVSPropertyOp38
 70
     0
102
RTVSPropertyOp39
 70
     0
102
RTVSPropertyOp40
 70
     0
102
RTVSPropertyOp41
 70
     0
102
RTVSPropertyOp42
 70
     0
102
RTVSPropertyOp43
 70
     0
102
RTVSPropertyOp44
 70
     0
102
RTVSPropertyOp45
 70
     1
102
RTVSPropertyOp46
 70
     0
102
RTVSPropertyOp47
 70
     0
102
RTVSPropertyOp48
 70
     0
102
RTVSPropertyOp49
 70
     1
102
RTVSPropertyOp50
 70
     0
102
RTVSPropertyOp51
 70
     0
102
RTVSPropertyOp52
 70
     0
102
RTVSPropertyOp53
 70
     0
102
RTVSPropertyOp54
 70
     0
102
RTVSPropertyOp55
 70
     1
102
RTVSPropertyOp56
 70
     0
102
RTVSPropertyOp57
 70
     0
102
RTVSPropertyOp58
 70
     0
102
RTVSPropertyOp59
 70
     0
102
RTVSPropertyOp60
 70
     0
102
RTVSPropertyOp61
 70
     0
102
RTVSPropertyOp62
 70
     0
  0
XRECORD
  5
515
102
{ACAD_REACTORS
330
514
102
}
330
514
100
AcDbXrecord
280
     1
102
RTVSPost2010Prop28
280
     0
102
RTVSPost2010PropOp28
 70
     1
102
RTVSPost2010Prop29
280
     1
102
RTVSPost2010PropOp29
 70
     1
102
RTVSPost2010Prop30
280
     1
102
RTVSPost2010PropOp30
 70
     1
102
RTVSPost2010Prop31
280
     0
102
RTVSPost2010PropOp31
 70
     1
102
RTVSPost2010Prop32
280
     0
102
RTVSPost2010PropOp32
 70
     1
102
RTVSPost2010Prop33
280
     0
102
RTVSPost2010PropOp33
 70
     1
102
RTVSPost2010Prop34
280
     0
102
RTVSPost2010PropOp34
 70
     1
102
RTVSPost2010Prop35
280
     0
102
RTVSPost2010PropOp35
 70
     1
102
RTVSPost2010Prop36
280
     0
102
RTVSPost2010PropOp36
 70
     1
102
RTVSPost2010Prop37
 90
       50
102
RTVSPost2010PropOp37
 70
     1
102
RTVSPost2010Prop38
140
0.0
102
RTVSPost2010PropOp38
 70
     1
102
RTVSPost2010Prop39
140
1.0
102
RTVSPost2010PropOp39
 70
     1
102
RTVSPost2010Prop40
 90
        0
102
RTVSPost2010PropOp40
 70
     1
102
RTVSPost2010Prop41ColorIndex
 90
       18
102
RTVSPost2010Prop41ColorRGB
 90
        0
102
RTVSPost2010PropOp41
 70
     1
102
RTVSPost2010Prop42
 90
       50
102
RTVSPost2010PropOp42
 70
     1
102
RTVSPost2010Prop43
 90
        3
102
RTVSPost2010PropOp43
 70
     1
102
RTVSPost2010Prop44ColorIndex
 90
        5
102
RTVSPost2010Prop44ColorRGB
 90
      255
102
RTVSPost2010PropOp44
 70
     1
102
RTVSPost2010Prop45
280
     0
102
RTVSPost2010PropOp45
 70
     1
102
RTVSPost2010Prop46
 90
       50
102
RTVSPost2010PropOp46
 70
     1
102
RTVSPost2010Prop47
 90
       50
102
RTVSPost2010PropOp47
 70
     1
102
RTVSPost2010Prop48
 90
       50
102
RTVSPost2010PropOp48
 70
     1
102
RTVSPost2010Prop49
280
     0
102
RTVSPost2010PropOp49
 70
     1
102
RTVSPost2010Prop50
 90
       50
102
RTVSPost2010PropOp50
 70
     1
102
RTVSPost2010Prop51ColorIndex
 90
      256
102
RTVSPost2010Prop51ColorRGB
 90
-16777216
102
RTVSPost2010PropOp51
 70
     0
102
RTVSPost2010Prop52
140
1.0
102
RTVSPost2010PropOp52
 70
     0
102
RTVSPost2010Prop53
 90
        2
102
RTVSPost2010PropOp53
 70
     1
102
RTVSPost2010Prop54
  1
strokes_ogs.tif
102
RTVSPost2010PropOp54
 70
     1
102
RTVSPost2010Prop55
280
     0
102
RTVSPost2010PropOp55
 70
     1
102
RTVSPost2010Prop56
140
1.0
102
RTVSPost2010PropOp56
 70
     1
102
RTVSPost2010Prop57
140
1.0
102
RTVSPost2010PropOp57
 70
     1
102
RTVSPropertyOp0
 70
     1
102
RTVSPropertyOp1
 70
     1
102
RTVSPropertyOp2
 70
     1
102
RTVSPropertyOp3
 70
     1
102
RTVSPropertyOp4
 70
     1
102
RTVSPropertyOp5
 70
     1
102
RTVSPropertyOp6
 70
     1
102
RTVSPropertyOp7
 70
     1
102
RTVSPropertyOp8
 70
     1
102
RTVSPropertyOp9
 70
     1
102
RTVSPropertyOp10
 70
     1
102
RTVSPropertyOp11
 70
     1
102
RTVSPropertyOp12
 70
     1
102
RTVSPropertyOp13
 70
     1
102
RTVSPropertyOp14
 70
     1
102
RTVSPropertyOp15
 70
     1
102
RTVSPropertyOp16
 70
     1
102
RTVSPropertyOp17
 70
     1
102
RTVSPropertyOp18
 70
     1
102
RTVSPropertyOp19
 70
     1
102
RTVSPropertyOp20
 70
     1
102
RTVSPropertyOp21
 70
     1
102
RTVSPropertyOp22
 70
     1
102
RTVSPropertyOp23
 70
     1
102
RTVSPropertyOp24
 70
     1
102
RTVSPropertyOp25
 70
     1
102
RTVSPropertyOp26
 70
     1
102
RTVSPropertyOp27
 70
     1
102
RTVSPropertyOp28
 70
     1
102
RTVSPropertyOp29
 70
     1
102
RTVSPropertyOp30
 70
     1
102
RTVSPropertyOp31
 70
     1
102
RTVSPropertyOp32
 70
     1
102
RTVSPropertyOp33
 70
     1
102
RTVSPropertyOp34
 70
     1
102
RTVSPropertyOp35
 70
     1
102
RTVSPropertyOp36
 70
     1
102
RTVSPropertyOp37
 70
     1
102
RTVSPropertyOp38
 70
     1
102
RTVSPropertyOp39
 70
     1
102
RTVSPropertyOp40
 70
     1
102
RTVSPropertyOp41
 70
     1
102
RTVSPropertyOp42
 70
     1
102
RTVSPropertyOp43
 70
     1
102
RTVSPropertyOp44
 70
     1
102
RTVSPropertyOp45
 70
     1
102
RTVSPropertyOp46
 70
     1
102
RTVSPropertyOp47
 70
     1
102
RTVSPropertyOp48
 70
     1
102
RTVSPropertyOp49
 70
     1
102
RTVSPropertyOp50
 70
     1
102
RTVSPropertyOp51
 70
     0
102
RTVSPropertyOp52
 70
     0
102
RTVSPropertyOp53
 70
     1
102
RTVSPropertyOp54
 70
     1
102
RTVSPropertyOp55
 70
     1
102
RTVSPropertyOp56
 70
     1
102
RTVSPropertyOp57
 70
     1
102
RTVSPropertyOp58
 70
     1
102
RTVSPropertyOp59
 70
     1
102
RTVSPropertyOp60
 70
     1
102
RTVSPropertyOp61
 70
     1
102
RTVSPropertyOp62
 70
     1
  0
XRECORD
  5
527
102
{ACAD_REACTORS
330
526
102
}
330
526
100
AcDbXrecord
280
     1
102
RTVSPost2010Prop28
280
     0
102
RTVSPost2010PropOp28
 70
     1
102
RTVSPost2010Prop29
280
     1
102
RTVSPost2010PropOp29
 70
     1
102
RTVSPost2010Prop30
280
     1
102
RTVSPost2010PropOp30
 70
     1
102
RTVSPost2010Prop31
280
     0
102
RTVSPost2010PropOp31
 70
     1
102
RTVSPost2010Prop32
280
     0
102
RTVSPost2010PropOp32
 70
     1
102
RTVSPost2010Prop33
280
     0
102
RTVSPost2010PropOp33
 70
     1
102
RTVSPost2010Prop34
280
     0
102
RTVSPost2010PropOp34
 70
     1
102
RTVSPost2010Prop35
280
     0
102
RTVSPost2010PropOp35
 70
     1
102
RTVSPost2010Prop36
280
     0
102
RTVSPost2010PropOp36
 70
     1
102
RTVSPost2010Prop37
 90
       50
102
RTVSPost2010PropOp37
 70
     0
102
RTVSPost2010Prop38
140
0.0
102
RTVSPost2010PropOp38
 70
     0
102
RTVSPost2010Prop39
140
1.0
102
RTVSPost2010PropOp39
 70
     0
102
RTVSPost2010Prop40
 90
        0
102
RTVSPost2010PropOp40
 70
     0
102
RTVSPost2010Prop41ColorIndex
 90
       18
102
RTVSPost2010Prop41ColorRGB
 90
        0
102
RTVSPost2010PropOp41
 70
     0
102
RTVSPost2010Prop42
 90
       50
102
RTVSPost2010PropOp42
 70
     0
102
RTVSPost2010Prop43
 90
        3
102
RTVSPost2010PropOp43
 70
     0
102
RTVSPost2010Prop44ColorIndex
 90
        5
102
RTVSPost2010Prop44ColorRGB
 90
      255
102
RTVSPost2010PropOp44
 70
     0
102
RTVSPost2010Prop45
280
     0
102
RTVSPost2010PropOp45
 70
     1
102
RTVSPost2010Prop46
 90
       50
102
RTVSPost2010PropOp46
 70
     0
102
RTVSPost2010Prop47
 90
       50
102
RTVSPost2010PropOp47
 70
     0
102
RTVSPost2010Prop48
 90
       50
102
RTVSPost2010PropOp48
 70
     0
102
RTVSPost2010Prop49
280
     0
102
RTVSPost2010PropOp49
 70
     1
102
RTVSPost2010Prop50
 90
       50
102
RTVSPost2010PropOp50
 70
     0
102
RTVSPost2010Prop51ColorIndex
 90
      256
102
RTVSPost2010Prop51ColorRGB
 90
-16777216
102
RTVSPost2010PropOp51
 70
     0
102
RTVSPost2010Prop52
140
1.0
102
RTVSPost2010PropOp52
 70
     0
102
RTVSPost2010Prop53
 90
        2
102
RTVSPost2010PropOp53
 70
     0
102
RTVSPost2010Prop54
  1
strokes_ogs.tif
102
RTVSPost2010PropOp54
 70
     0
102
RTVSPost2010Prop55
280
     0
102
RTVSPost2010PropOp55
 70
     1
102
RTVSPost2010Prop56
140
1.0
102
RTVSPost2010PropOp56
 70
     0
102
RTVSPost2010Prop57
140
1.0
102
RTVSPost2010PropOp57
 70
     0
102
RTVSPropertyOp0
 70
     0
102
RTVSPropertyOp1
 70
     0
102
RTVSPropertyOp2
 70
     0
102
RTVSPropertyOp3
 70
     0
102
RTVSPropertyOp4
 70
     0
102
RTVSPropertyOp5
 70
     0
102
RTVSPropertyOp6
 70
     0
102
RTVSPropertyOp7
 70
     0
102
RTVSPropertyOp8
 70
     0
102
RTVSPropertyOp9
 70
     0
102
RTVSPropertyOp10
 70
     0
102
RTVSPropertyOp11
 70
     0
102
RTVSPropertyOp12
 70
     0
102
RTVSPropertyOp13
 70
     0
102
RTVSPropertyOp14
 70
     2
102
RTVSPropertyOp15
 70
     0
102
RTVSPropertyOp16
 70
     0
102
RTVSPropertyOp17
 70
     0
102
RTVSPropertyOp18
 70
     0
102
RTVSPropertyOp19
 70
     0
102
RTVSPropertyOp20
 70
     0
102
RTVSPropertyOp21
 70
     0
102
RTVSPropertyOp22
 70
     0
102
RTVSPropertyOp23
 70
     0
102
RTVSPropertyOp24
 70
     0
102
RTVSPropertyOp25
 70
     0
102
RTVSPropertyOp26
 70
     0
102
RTVSPropertyOp27
 70
     0
102
RTVSPropertyOp28
 70
     1
102
RTVSPropertyOp29
 70
     1
102
RTVSPropertyOp30
 70
     1
102
RTVSPropertyOp31
 70
     1
102
RTVSPropertyOp32
 70
     1
102
RTVSPropertyOp33
 70
     1
102
RTVSPropertyOp34
 70
     1
102
RTVSPropertyOp35
 70
     1
102
RTVSPropertyOp36
 70
     1
102
RTVSPropertyOp37
 70
     0
102
RTVSPropertyOp38
 70
     0
102
RTVSPropertyOp39
 70
     0
102
RTVSPropertyOp40
 70
     0
102
RTVSPropertyOp41
 70
     0
102
RTVSPropertyOp42
 70
     0
102
RTVSPropertyOp43
 70
     0
102
RTVSPropertyOp44
 70
     0
102
RTVSPropertyOp45
 70
     1
102
RTVSPropertyOp46
 70
     0
102
RTVSPropertyOp47
 70
     0
102
RTVSPropertyOp48
 70
     0
102
RTVSPropertyOp49
 70
     1
102
RTVSPropertyOp50
 70
     0
102
RTVSPropertyOp51
 70
     0
102
RTVSPropertyOp52
 70
     0
102
RTVSPropertyOp53
 70
     0
102
RTVSPropertyOp54
 70
     0
102
RTVSPropertyOp55
 70
     1
102
RTVSPropertyOp56
 70
     0
102
RTVSPropertyOp57
 70
     0
102
RTVSPropertyOp58
 70
     0
102
RTVSPropertyOp59
 70
     0
102
RTVSPropertyOp60
 70
     0
102
RTVSPropertyOp61
 70
     0
102
RTVSPropertyOp62
 70
     0
  0
XRECORD
  5
50D
102
{ACAD_REACTORS
330
50C
102
}
330
50C
100
AcDbXrecord
280
     1
102
RTVSPost2010Prop28
280
     0
102
RTVSPost2010PropOp28
 70
     1
102
RTVSPost2010Prop29
280
     1
102
RTVSPost2010PropOp29
 70
     1
102
RTVSPost2010Prop30
280
     1
102
RTVSPost2010PropOp30
 70
     1
102
RTVSPost2010Prop31
280
     0
102
RTVSPost2010PropOp31
 70
     1
102
RTVSPost2010Prop32
280
     0
102
RTVSPost2010PropOp32
 70
     1
102
RTVSPost2010Prop33
280
     0
102
RTVSPost2010PropOp33
 70
     1
102
RTVSPost2010Prop34
280
     0
102
RTVSPost2010PropOp34
 70
     1
102
RTVSPost2010Prop35
280
     0
102
RTVSPost2010PropOp35
 70
     1
102
RTVSPost2010Prop36
280
     0
102
RTVSPost2010PropOp36
 70
     1
102
RTVSPost2010Prop37
 90
       50
102
RTVSPost2010PropOp37
 70
     1
102
RTVSPost2010Prop38
140
0.0
102
RTVSPost2010PropOp38
 70
     1
102
RTVSPost2010Prop39
140
1.0
102
RTVSPost2010PropOp39
 70
     1
102
RTVSPost2010Prop40
 90
        0
102
RTVSPost2010PropOp40
 70
     1
102
RTVSPost2010Prop41ColorIndex
 90
       18
102
RTVSPost2010Prop41ColorRGB
 90
        0
102
RTVSPost2010PropOp41
 70
     1
102
RTVSPost2010Prop42
 90
       50
102
RTVSPost2010PropOp42
 70
     1
102
RTVSPost2010Prop43
 90
        3
102
RTVSPost2010PropOp43
 70
     1
102
RTVSPost2010Prop44ColorIndex
 90
        5
102
RTVSPost2010Prop44ColorRGB
 90
      255
102
RTVSPost2010PropOp44
 70
     1
102
RTVSPost2010Prop45
280
     0
102
RTVSPost2010PropOp45
 70
     1
102
RTVSPost2010Prop46
 90
       50
102
RTVSPost2010PropOp46
 70
     1
102
RTVSPost2010Prop47
 90
       50
102
RTVSPost2010PropOp47
 70
     1
102
RTVSPost2010Prop48
 90
       50
102
RTVSPost2010PropOp48
 70
     1
102
RTVSPost2010Prop49
280
     0
102
RTVSPost2010PropOp49
 70
     1
102
RTVSPost2010Prop50
 90
       50
102
RTVSPost2010PropOp50
 70
     1
102
RTVSPost2010Prop51ColorIndex
 90
      256
102
RTVSPost2010Prop51ColorRGB
 90
-16777216
102
RTVSPost2010PropOp51
 70
     0
102
RTVSPost2010Prop52
140
1.0
102
RTVSPost2010PropOp52
 70
     0
102
RTVSPost2010Prop53
 90
        2
102
RTVSPost2010PropOp53
 70
     1
102
RTVSPost2010Prop54
  1
strokes_ogs.tif
102
RTVSPost2010PropOp54
 70
     1
102
RTVSPost2010Prop55
280
     0
102
RTVSPost2010PropOp55
 70
     1
102
RTVSPost2010Prop56
140
1.0
102
RTVSPost2010PropOp56
 70
     1
102
RTVSPost2010Prop57
140
1.0
102
RTVSPost2010PropOp57
 70
     1
102
RTVSPropertyOp0
 70
     1
102
RTVSPropertyOp1
 70
     1
102
RTVSPropertyOp2
 70
     1
102
RTVSPropertyOp3
 70
     1
102
RTVSPropertyOp4
 70
     1
102
RTVSPropertyOp5
 70
     1
102
RTVSPropertyOp6
 70
     1
102
RTVSPropertyOp7
 70
     1
102
RTVSPropertyOp8
 70
     1
102
RTVSPropertyOp9
 70
     1
102
RTVSPropertyOp10
 70
     1
102
RTVSPropertyOp11
 70
     1
102
RTVSPropertyOp12
 70
     1
102
RTVSPropertyOp13
 70
     1
102
RTVSPropertyOp14
 70
     1
102
RTVSPropertyOp15
 70
     1
102
RTVSPropertyOp16
 70
     1
102
RTVSPropertyOp17
 70
     1
102
RTVSPropertyOp18
 70
     1
102
RTVSPropertyOp19
 70
     1
102
RTVSPropertyOp20
 70
     1
102
RTVSPropertyOp21
 70
     1
102
RTVSPropertyOp22
 70
     1
102
RTVSPropertyOp23
 70
     1
102
RTVSPropertyOp24
 70
     1
102
RTVSPropertyOp25
 70
     1
102
RTVSPropertyOp26
 70
     1
102
RTVSPropertyOp27
 70
     1
102
RTVSPropertyOp28
 70
     1
102
RTVSPropertyOp29
 70
     1
102
RTVSPropertyOp30
 70
     1
102
RTVSPropertyOp31
 70
     1
102
RTVSPropertyOp32
 70
     1
102
RTVSPropertyOp33
 70
     1
102
RTVSPropertyOp34
 70
     1
102
RTVSPropertyOp35
 70
     1
102
RTVSPropertyOp36
 70
     1
102
RTVSPropertyOp37
 70
     1
102
RTVSPropertyOp38
 70
     1
102
RTVSPropertyOp39
 70
     1
102
RTVSPropertyOp40
 70
     1
102
RTVSPropertyOp41
 70
     1
102
RTVSPropertyOp42
 70
     1
102
RTVSPropertyOp43
 70
     1
102
RTVSPropertyOp44
 70
     1
102
RTVSPropertyOp45
 70
     1
102
RTVSPropertyOp46
 70
     1
102
RTVSPropertyOp47
 70
     1
102
RTVSPropertyOp48
 70
     1
102
RTVSPropertyOp49
 70
     1
102
RTVSPropertyOp50
 70
     1
102
RTVSPropertyOp51
 70
     0
102
RTVSPropertyOp52
 70
     0
102
RTVSPropertyOp53
 70
     1
102
RTVSPropertyOp54
 70
     1
102
RTVSPropertyOp55
 70
     1
102
RTVSPropertyOp56
 70
     1
102
RTVSPropertyOp57
 70
     1
102
RTVSPropertyOp58
 70
     1
102
RTVSPropertyOp59
 70
     1
102
RTVSPropertyOp60
 70
     1
102
RTVSPropertyOp61
 70
     1
102
RTVSPropertyOp62
 70
     1
  0
XRECORD
  5
523
102
{ACAD_REACTORS
330
522
102
}
330
522
100
AcDbXrecord
280
     1
102
RTVSPost2010Prop28
280
     0
102
RTVSPost2010PropOp28
 70
     1
102
RTVSPost2010Prop29
280
     1
102
RTVSPost2010PropOp29
 70
     1
102
RTVSPost2010Prop30
280
     1
102
RTVSPost2010PropOp30
 70
     1
102
RTVSPost2010Prop31
280
     0
102
RTVSPost2010PropOp31
 70
     1
102
RTVSPost2010Prop32
280
     0
102
RTVSPost2010PropOp32
 70
     1
102
RTVSPost2010Prop33
280
     0
102
RTVSPost2010PropOp33
 70
     1
102
RTVSPost2010Prop34
280
     0
102
RTVSPost2010PropOp34
 70
     1
102
RTVSPost2010Prop35
280
     0
102
RTVSPost2010PropOp35
 70
     1
102
RTVSPost2010Prop36
280
     0
102
RTVSPost2010PropOp36
 70
     1
102
RTVSPost2010Prop37
 90
       50
102
RTVSPost2010PropOp37
 70
     1
102
RTVSPost2010Prop38
140
0.0
102
RTVSPost2010PropOp38
 70
     1
102
RTVSPost2010Prop39
140
1.0
102
RTVSPost2010PropOp39
 70
     1
102
RTVSPost2010Prop40
 90
        0
102
RTVSPost2010PropOp40
 70
     1
102
RTVSPost2010Prop41ColorIndex
 90
       18
102
RTVSPost2010Prop41ColorRGB
 90
        0
102
RTVSPost2010PropOp41
 70
     1
102
RTVSPost2010Prop42
 90
       50
102
RTVSPost2010PropOp42
 70
     1
102
RTVSPost2010Prop43
 90
        3
102
RTVSPost2010PropOp43
 70
     1
102
RTVSPost2010Prop44ColorIndex
 90
        5
102
RTVSPost2010Prop44ColorRGB
 90
      255
102
RTVSPost2010PropOp44
 70
     1
102
RTVSPost2010Prop45
280
     0
102
RTVSPost2010PropOp45
 70
     1
102
RTVSPost2010Prop46
 90
       50
102
RTVSPost2010PropOp46
 70
     1
102
RTVSPost2010Prop47
 90
       50
102
RTVSPost2010PropOp47
 70
     1
102
RTVSPost2010Prop48
 90
       50
102
RTVSPost2010PropOp48
 70
     1
102
RTVSPost2010Prop49
280
     0
102
RTVSPost2010PropOp49
 70
     1
102
RTVSPost2010Prop50
 90
       50
102
RTVSPost2010PropOp50
 70
     1
102
RTVSPost2010Prop51ColorIndex
 90
      256
102
RTVSPost2010Prop51ColorRGB
 90
-16777216
102
RTVSPost2010PropOp51
 70
     0
102
RTVSPost2010Prop52
140
1.0
102
RTVSPost2010PropOp52
 70
     0
102
RTVSPost2010Prop53
 90
        2
102
RTVSPost2010PropOp53
 70
     1
102
RTVSPost2010Prop54
  1
strokes_ogs.tif
102
RTVSPost2010PropOp54
 70
     1
102
RTVSPost2010Prop55
280
     0
102
RTVSPost2010PropOp55
 70
     1
102
RTVSPost2010Prop56
140
1.0
102
RTVSPost2010PropOp56
 70
     1
102
RTVSPost2010Prop57
140
1.0
102
RTVSPost2010PropOp57
 70
     1
102
RTVSPropertyOp0
 70
     1
102
RTVSPropertyOp1
 70
     1
102
RTVSPropertyOp2
 70
     1
102
RTVSPropertyOp3
 70
     1
102
RTVSPropertyOp4
 70
     1
102
RTVSPropertyOp5
 70
     1
102
RTVSPropertyOp6
 70
     1
102
RTVSPropertyOp7
 70
     1
102
RTVSPropertyOp8
 70
     1
102
RTVSPropertyOp9
 70
     1
102
RTVSPropertyOp10
 70
     1
102
RTVSPropertyOp11
 70
     1
102
RTVSPropertyOp12
 70
     1
102
RTVSPropertyOp13
 70
     1
102
RTVSPropertyOp14
 70
     1
102
RTVSPropertyOp15
 70
     1
102
RTVSPropertyOp16
 70
     1
102
RTVSPropertyOp17
 70
     1
102
RTVSPropertyOp18
 70
     1
102
RTVSPropertyOp19
 70
     1
102
RTVSPropertyOp20
 70
     1
102
RTVSPropertyOp21
 70
     1
102
RTVSPropertyOp22
 70
     1
102
RTVSPropertyOp23
 70
     1
102
RTVSPropertyOp24
 70
     1
102
RTVSPropertyOp25
 70
     1
102
RTVSPropertyOp26
 70
     1
102
RTVSPropertyOp27
 70
     1
102
RTVSPropertyOp28
 70
     1
102
RTVSPropertyOp29
 70
     1
102
RTVSPropertyOp30
 70
     1
102
RTVSPropertyOp31
 70
     1
102
RTVSPropertyOp32
 70
     1
102
RTVSPropertyOp33
 70
     1
102
RTVSPropertyOp34
 70
     1
102
RTVSPropertyOp35
 70
     1
102
RTVSPropertyOp36
 70
     1
102
RTVSPropertyOp37
 70
     1
102
RTVSPropertyOp38
 70
     1
102
RTVSPropertyOp39
 70
     1
102
RTVSPropertyOp40
 70
     1
102
RTVSPropertyOp41
 70
     1
102
RTVSPropertyOp42
 70
     1
102
RTVSPropertyOp43
 70
     1
102
RTVSPropertyOp44
 70
     1
102
RTVSPropertyOp45
 70
     1
102
RTVSPropertyOp46
 70
     1
102
RTVSPropertyOp47
 70
     1
102
RTVSPropertyOp48
 70
     1
102
RTVSPropertyOp49
 70
     1
102
RTVSPropertyOp50
 70
     1
102
RTVSPropertyOp51
 70
     0
102
RTVSPropertyOp52
 70
     0
102
RTVSPropertyOp53
 70
     1
102
RTVSPropertyOp54
 70
     1
102
RTVSPropertyOp55
 70
     1
102
RTVSPropertyOp56
 70
     1
102
RTVSPropertyOp57
 70
     1
102
RTVSPropertyOp58
 70
     1
102
RTVSPropertyOp59
 70
     1
102
RTVSPropertyOp60
 70
     1
102
RTVSPropertyOp61
 70
     1
102
RTVSPropertyOp62
 70
     1
  0
XRECORD
  5
521
102
{ACAD_REACTORS
330
520
102
}
330
520
100
AcDbXrecord
280
     1
102
RTVSPost2010Prop28
280
     0
102
RTVSPost2010PropOp28
 70
     1
102
RTVSPost2010Prop29
280
     1
102
RTVSPost2010PropOp29
 70
     1
102
RTVSPost2010Prop30
280
     1
102
RTVSPost2010PropOp30
 70
     1
102
RTVSPost2010Prop31
280
     0
102
RTVSPost2010PropOp31
 70
     1
102
RTVSPost2010Prop32
280
     0
102
RTVSPost2010PropOp32
 70
     1
102
RTVSPost2010Prop33
280
     0
102
RTVSPost2010PropOp33
 70
     1
102
RTVSPost2010Prop34
280
     0
102
RTVSPost2010PropOp34
 70
     1
102
RTVSPost2010Prop35
280
     0
102
RTVSPost2010PropOp35
 70
     1
102
RTVSPost2010Prop36
280
     0
102
RTVSPost2010PropOp36
 70
     1
102
RTVSPost2010Prop37
 90
       50
102
RTVSPost2010PropOp37
 70
     1
102
RTVSPost2010Prop38
140
0.0
102
RTVSPost2010PropOp38
 70
     1
102
RTVSPost2010Prop39
140
1.0
102
RTVSPost2010PropOp39
 70
     1
102
RTVSPost2010Prop40
 90
        0
102
RTVSPost2010PropOp40
 70
     1
102
RTVSPost2010Prop41ColorIndex
 90
       18
102
RTVSPost2010Prop41ColorRGB
 90
        0
102
RTVSPost2010PropOp41
 70
     1
102
RTVSPost2010Prop42
 90
       50
102
RTVSPost2010PropOp42
 70
     1
102
RTVSPost2010Prop43
 90
        3
102
RTVSPost2010PropOp43
 70
     1
102
RTVSPost2010Prop44ColorIndex
 90
        5
102
RTVSPost2010Prop44ColorRGB
 90
      255
102
RTVSPost2010PropOp44
 70
     1
102
RTVSPost2010Prop45
280
     0
102
RTVSPost2010PropOp45
 70
     1
102
RTVSPost2010Prop46
 90
       50
102
RTVSPost2010PropOp46
 70
     1
102
RTVSPost2010Prop47
 90
       50
102
RTVSPost2010PropOp47
 70
     1
102
RTVSPost2010Prop48
 90
       50
102
RTVSPost2010PropOp48
 70
     1
102
RTVSPost2010Prop49
280
     0
102
RTVSPost2010PropOp49
 70
     1
102
RTVSPost2010Prop50
 90
       50
102
RTVSPost2010PropOp50
 70
     1
102
RTVSPost2010Prop51ColorIndex
 90
      256
102
RTVSPost2010Prop51ColorRGB
 90
-16777216
102
RTVSPost2010PropOp51
 70
     0
102
RTVSPost2010Prop52
140
1.0
102
RTVSPost2010PropOp52
 70
     0
102
RTVSPost2010Prop53
 90
        2
102
RTVSPost2010PropOp53
 70
     1
102
RTVSPost2010Prop54
  1
strokes_ogs.tif
102
RTVSPost2010PropOp54
 70
     1
102
RTVSPost2010Prop55
280
     0
102
RTVSPost2010PropOp55
 70
     1
102
RTVSPost2010Prop56
140
1.0
102
RTVSPost2010PropOp56
 70
     1
102
RTVSPost2010Prop57
140
1.0
102
RTVSPost2010PropOp57
 70
     1
102
RTVSPropertyOp0
 70
     1
102
RTVSPropertyOp1
 70
     1
102
RTVSPropertyOp2
 70
     1
102
RTVSPropertyOp3
 70
     1
102
RTVSPropertyOp4
 70
     1
102
RTVSPropertyOp5
 70
     1
102
RTVSPropertyOp6
 70
     1
102
RTVSPropertyOp7
 70
     1
102
RTVSPropertyOp8
 70
     1
102
RTVSPropertyOp9
 70
     1
102
RTVSPropertyOp10
 70
     1
102
RTVSPropertyOp11
 70
     1
102
RTVSPropertyOp12
 70
     1
102
RTVSPropertyOp13
 70
     1
102
RTVSPropertyOp14
 70
     1
102
RTVSPropertyOp15
 70
     1
102
RTVSPropertyOp16
 70
     1
102
RTVSPropertyOp17
 70
     1
102
RTVSPropertyOp18
 70
     1
102
RTVSPropertyOp19
 70
     1
102
RTVSPropertyOp20
 70
     1
102
RTVSPropertyOp21
 70
     1
102
RTVSPropertyOp22
 70
     1
102
RTVSPropertyOp23
 70
     1
102
RTVSPropertyOp24
 70
     1
102
RTVSPropertyOp25
 70
     1
102
RTVSPropertyOp26
 70
     1
102
RTVSPropertyOp27
 70
     1
102
RTVSPropertyOp28
 70
     1
102
RTVSPropertyOp29
 70
     1
102
RTVSPropertyOp30
 70
     1
102
RTVSPropertyOp31
 70
     1
102
RTVSPropertyOp32
 70
     1
102
RTVSPropertyOp33
 70
     1
102
RTVSPropertyOp34
 70
     1
102
RTVSPropertyOp35
 70
     1
102
RTVSPropertyOp36
 70
     1
102
RTVSPropertyOp37
 70
     1
102
RTVSPropertyOp38
 70
     1
102
RTVSPropertyOp39
 70
     1
102
RTVSPropertyOp40
 70
     1
102
RTVSPropertyOp41
 70
     1
102
RTVSPropertyOp42
 70
     1
102
RTVSPropertyOp43
 70
     1
102
RTVSPropertyOp44
 70
     1
102
RTVSPropertyOp45
 70
     1
102
RTVSPropertyOp46
 70
     1
102
RTVSPropertyOp47
 70
     1
102
RTVSPropertyOp48
 70
     1
102
RTVSPropertyOp49
 70
     1
102
RTVSPropertyOp50
 70
     1
102
RTVSPropertyOp51
 70
     0
102
RTVSPropertyOp52
 70
     0
102
RTVSPropertyOp53
 70
     1
102
RTVSPropertyOp54
 70
     1
102
RTVSPropertyOp55
 70
     1
102
RTVSPropertyOp56
 70
     1
102
RTVSPropertyOp57
 70
     1
102
RTVSPropertyOp58
 70
     1
102
RTVSPropertyOp59
 70
     1
102
RTVSPropertyOp60
 70
     1
102
RTVSPropertyOp61
 70
     1
102
RTVSPropertyOp62
 70
     1
  0
XRECORD
  5
51B
102
{ACAD_REACTORS
330
51A
102
}
330
51A
100
AcDbXrecord
280
     1
102
RTVSPost2010Prop28
280
     0
102
RTVSPost2010PropOp28
 70
     1
102
RTVSPost2010Prop29
280
     1
102
RTVSPost2010PropOp29
 70
     1
102
RTVSPost2010Prop30
280
     1
102
RTVSPost2010PropOp30
 70
     1
102
RTVSPost2010Prop31
280
     0
102
RTVSPost2010PropOp31
 70
     1
102
RTVSPost2010Prop32
280
     0
102
RTVSPost2010PropOp32
 70
     1
102
RTVSPost2010Prop33
280
     0
102
RTVSPost2010PropOp33
 70
     1
102
RTVSPost2010Prop34
280
     0
102
RTVSPost2010PropOp34
 70
     1
102
RTVSPost2010Prop35
280
     0
102
RTVSPost2010PropOp35
 70
     1
102
RTVSPost2010Prop36
280
     0
102
RTVSPost2010PropOp36
 70
     1
102
RTVSPost2010Prop37
 90
       50
102
RTVSPost2010PropOp37
 70
     1
102
RTVSPost2010Prop38
140
0.0
102
RTVSPost2010PropOp38
 70
     1
102
RTVSPost2010Prop39
140
1.0
102
RTVSPost2010PropOp39
 70
     1
102
RTVSPost2010Prop40
 90
        0
102
RTVSPost2010PropOp40
 70
     1
102
RTVSPost2010Prop41ColorIndex
 90
       18
102
RTVSPost2010Prop41ColorRGB
 90
        0
102
RTVSPost2010PropOp41
 70
     1
102
RTVSPost2010Prop42
 90
       50
102
RTVSPost2010PropOp42
 70
     1
102
RTVSPost2010Prop43
 90
        3
102
RTVSPost2010PropOp43
 70
     1
102
RTVSPost2010Prop44ColorIndex
 90
        5
102
RTVSPost2010Prop44ColorRGB
 90
      255
102
RTVSPost2010PropOp44
 70
     1
102
RTVSPost2010Prop45
280
     0
102
RTVSPost2010PropOp45
 70
     1
102
RTVSPost2010Prop46
 90
       50
102
RTVSPost2010PropOp46
 70
     1
102
RTVSPost2010Prop47
 90
       50
102
RTVSPost2010PropOp47
 70
     1
102
RTVSPost2010Prop48
 90
       50
102
RTVSPost2010PropOp48
 70
     1
102
RTVSPost2010Prop49
280
     0
102
RTVSPost2010PropOp49
 70
     1
102
RTVSPost2010Prop50
 90
       50
102
RTVSPost2010PropOp50
 70
     1
102
RTVSPost2010Prop51ColorIndex
 90
      256
102
RTVSPost2010Prop51ColorRGB
 90
-16777216
102
RTVSPost2010PropOp51
 70
     0
102
RTVSPost2010Prop52
140
1.0
102
RTVSPost2010PropOp52
 70
     0
102
RTVSPost2010Prop53
 90
        2
102
RTVSPost2010PropOp53
 70
     1
102
RTVSPost2010Prop54
  1
strokes_ogs.tif
102
RTVSPost2010PropOp54
 70
     1
102
RTVSPost2010Prop55
280
     0
102
RTVSPost2010PropOp55
 70
     1
102
RTVSPost2010Prop56
140
1.0
102
RTVSPost2010PropOp56
 70
     1
102
RTVSPost2010Prop57
140
1.0
102
RTVSPost2010PropOp57
 70
     1
102
RTVSPropertyOp0
 70
     1
102
RTVSPropertyOp1
 70
     1
102
RTVSPropertyOp2
 70
     1
102
RTVSPropertyOp3
 70
     1
102
RTVSPropertyOp4
 70
     1
102
RTVSPropertyOp5
 70
     1
102
RTVSPropertyOp6
 70
     1
102
RTVSPropertyOp7
 70
     1
102
RTVSPropertyOp8
 70
     1
102
RTVSPropertyOp9
 70
     1
102
RTVSPropertyOp10
 70
     1
102
RTVSPropertyOp11
 70
     1
102
RTVSPropertyOp12
 70
     1
102
RTVSPropertyOp13
 70
     1
102
RTVSPropertyOp14
 70
     1
102
RTVSPropertyOp15
 70
     1
102
RTVSPropertyOp16
 70
     1
102
RTVSPropertyOp17
 70
     1
102
RTVSPropertyOp18
 70
     1
102
RTVSPropertyOp19
 70
     1
102
RTVSPropertyOp20
 70
     1
102
RTVSPropertyOp21
 70
     1
102
RTVSPropertyOp22
 70
     1
102
RTVSPropertyOp23
 70
     1
102
RTVSPropertyOp24
 70
     1
102
RTVSPropertyOp25
 70
     1
102
RTVSPropertyOp26
 70
     1
102
RTVSPropertyOp27
 70
     1
102
RTVSPropertyOp28
 70
     1
102
RTVSPropertyOp29
 70
     1
102
RTVSPropertyOp30
 70
     1
102
RTVSPropertyOp31
 70
     1
102
RTVSPropertyOp32
 70
     1
102
RTVSPropertyOp33
 70
     1
102
RTVSPropertyOp34
 70
     1
102
RTVSPropertyOp35
 70
     1
102
RTVSPropertyOp36
 70
     1
102
RTVSPropertyOp37
 70
     1
102
RTVSPropertyOp38
 70
     1
102
RTVSPropertyOp39
 70
     1
102
RTVSPropertyOp40
 70
     1
102
RTVSPropertyOp41
 70
     1
102
RTVSPropertyOp42
 70
     1
102
RTVSPropertyOp43
 70
     1
102
RTVSPropertyOp44
 70
     1
102
RTVSPropertyOp45
 70
     1
102
RTVSPropertyOp46
 70
     1
102
RTVSPropertyOp47
 70
     1
102
RTVSPropertyOp48
 70
     1
102
RTVSPropertyOp49
 70
     1
102
RTVSPropertyOp50
 70
     1
102
RTVSPropertyOp51
 70
     0
102
RTVSPropertyOp52
 70
     0
102
RTVSPropertyOp53
 70
     1
102
RTVSPropertyOp54
 70
     1
102
RTVSPropertyOp55
 70
     1
102
RTVSPropertyOp56
 70
     1
102
RTVSPropertyOp57
 70
     1
102
RTVSPropertyOp58
 70
     1
102
RTVSPropertyOp59
 70
     1
102
RTVSPropertyOp60
 70
     1
102
RTVSPropertyOp61
 70
     1
102
RTVSPropertyOp62
 70
     1
  0
XRECORD
  5
51D
102
{ACAD_REACTORS
330
51C
102
}
330
51C
100
AcDbXrecord
280
     1
102
RTVSPost2010Prop28
280
     0
102
RTVSPost2010PropOp28
 70
     1
102
RTVSPost2010Prop29
280
     1
102
RTVSPost2010PropOp29
 70
     1
102
RTVSPost2010Prop30
280
     1
102
RTVSPost2010PropOp30
 70
     1
102
RTVSPost2010Prop31
280
     0
102
RTVSPost2010PropOp31
 70
     1
102
RTVSPost2010Prop32
280
     0
102
RTVSPost2010PropOp32
 70
     1
102
RTVSPost2010Prop33
280
     0
102
RTVSPost2010PropOp33
 70
     1
102
RTVSPost2010Prop34
280
     0
102
RTVSPost2010PropOp34
 70
     1
102
RTVSPost2010Prop35
280
     0
102
RTVSPost2010PropOp35
 70
     1
102
RTVSPost2010Prop36
280
     0
102
RTVSPost2010PropOp36
 70
     1
102
RTVSPost2010Prop37
 90
       50
102
RTVSPost2010PropOp37
 70
     1
102
RTVSPost2010Prop38
140
0.0
102
RTVSPost2010PropOp38
 70
     1
102
RTVSPost2010Prop39
140
1.0
102
RTVSPost2010PropOp39
 70
     1
102
RTVSPost2010Prop40
 90
        0
102
RTVSPost2010PropOp40
 70
     1
102
RTVSPost2010Prop41ColorIndex
 90
       18
102
RTVSPost2010Prop41ColorRGB
 90
        0
102
RTVSPost2010PropOp41
 70
     1
102
RTVSPost2010Prop42
 90
       50
102
RTVSPost2010PropOp42
 70
     1
102
RTVSPost2010Prop43
 90
        3
102
RTVSPost2010PropOp43
 70
     1
102
RTVSPost2010Prop44ColorIndex
 90
        5
102
RTVSPost2010Prop44ColorRGB
 90
      255
102
RTVSPost2010PropOp44
 70
     1
102
RTVSPost2010Prop45
280
     0
102
RTVSPost2010PropOp45
 70
     1
102
RTVSPost2010Prop46
 90
       50
102
RTVSPost2010PropOp46
 70
     1
102
RTVSPost2010Prop47
 90
       50
102
RTVSPost2010PropOp47
 70
     1
102
RTVSPost2010Prop48
 90
       50
102
RTVSPost2010PropOp48
 70
     1
102
RTVSPost2010Prop49
280
     0
102
RTVSPost2010PropOp49
 70
     1
102
RTVSPost2010Prop50
 90
       50
102
RTVSPost2010PropOp50
 70
     1
102
RTVSPost2010Prop51ColorIndex
 90
      256
102
RTVSPost2010Prop51ColorRGB
 90
-16777216
102
RTVSPost2010PropOp51
 70
     0
102
RTVSPost2010Prop52
140
1.0
102
RTVSPost2010PropOp52
 70
     0
102
RTVSPost2010Prop53
 90
        2
102
RTVSPost2010PropOp53
 70
     1
102
RTVSPost2010Prop54
  1
strokes_ogs.tif
102
RTVSPost2010PropOp54
 70
     1
102
RTVSPost2010Prop55
280
     0
102
RTVSPost2010PropOp55
 70
     1
102
RTVSPost2010Prop56
140
1.0
102
RTVSPost2010PropOp56
 70
     1
102
RTVSPost2010Prop57
140
1.0
102
RTVSPost2010PropOp57
 70
     1
102
RTVSPropertyOp0
 70
     1
102
RTVSPropertyOp1
 70
     1
102
RTVSPropertyOp2
 70
     1
102
RTVSPropertyOp3
 70
     1
102
RTVSPropertyOp4
 70
     1
102
RTVSPropertyOp5
 70
     1
102
RTVSPropertyOp6
 70
     1
102
RTVSPropertyOp7
 70
     1
102
RTVSPropertyOp8
 70
     1
102
RTVSPropertyOp9
 70
     1
102
RTVSPropertyOp10
 70
     1
102
RTVSPropertyOp11
 70
     1
102
RTVSPropertyOp12
 70
     1
102
RTVSPropertyOp13
 70
     1
102
RTVSPropertyOp14
 70
     1
102
RTVSPropertyOp15
 70
     1
102
RTVSPropertyOp16
 70
     1
102
RTVSPropertyOp17
 70
     1
102
RTVSPropertyOp18
 70
     1
102
RTVSPropertyOp19
 70
     1
102
RTVSPropertyOp20
 70
     1
102
RTVSPropertyOp21
 70
     1
102
RTVSPropertyOp22
 70
     1
102
RTVSPropertyOp23
 70
     1
102
RTVSPropertyOp24
 70
     1
102
RTVSPropertyOp25
 70
     1
102
RTVSPropertyOp26
 70
     1
102
RTVSPropertyOp27
 70
     1
102
RTVSPropertyOp28
 70
     1
102
RTVSPropertyOp29
 70
     1
102
RTVSPropertyOp30
 70
     1
102
RTVSPropertyOp31
 70
     1
102
RTVSPropertyOp32
 70
     1
102
RTVSPropertyOp33
 70
     1
102
RTVSPropertyOp34
 70
     1
102
RTVSPropertyOp35
 70
     1
102
RTVSPropertyOp36
 70
     1
102
RTVSPropertyOp37
 70
     1
102
RTVSPropertyOp38
 70
     1
102
RTVSPropertyOp39
 70
     1
102
RTVSPropertyOp40
 70
     1
102
RTVSPropertyOp41
 70
     1
102
RTVSPropertyOp42
 70
     1
102
RTVSPropertyOp43
 70
     1
102
RTVSPropertyOp44
 70
     1
102
RTVSPropertyOp45
 70
     1
102
RTVSPropertyOp46
 70
     1
102
RTVSPropertyOp47
 70
     1
102
RTVSPropertyOp48
 70
     1
102
RTVSPropertyOp49
 70
     1
102
RTVSPropertyOp50
 70
     1
102
RTVSPropertyOp51
 70
     0
102
RTVSPropertyOp52
 70
     0
102
RTVSPropertyOp53
 70
     1
102
RTVSPropertyOp54
 70
     1
102
RTVSPropertyOp55
 70
     1
102
RTVSPropertyOp56
 70
     1
102
RTVSPropertyOp57
 70
     1
102
RTVSPropertyOp58
 70
     1
102
RTVSPropertyOp59
 70
     1
102
RTVSPropertyOp60
 70
     1
102
RTVSPropertyOp61
 70
     1
102
RTVSPropertyOp62
 70
     1
  0
XRECORD
  5
513
102
{ACAD_REACTORS
330
512
102
}
330
512
100
AcDbXrecord
280
     1
102
RTVSPost2010Prop28
280
     0
102
RTVSPost2010PropOp28
 70
     1
102
RTVSPost2010Prop29
280
     1
102
RTVSPost2010PropOp29
 70
     1
102
RTVSPost2010Prop30
280
     1
102
RTVSPost2010PropOp30
 70
     1
102
RTVSPost2010Prop31
280
     0
102
RTVSPost2010PropOp31
 70
     1
102
RTVSPost2010Prop32
280
     0
102
RTVSPost2010PropOp32
 70
     1
102
RTVSPost2010Prop33
280
     0
102
RTVSPost2010PropOp33
 70
     1
102
RTVSPost2010Prop34
280
     0
102
RTVSPost2010PropOp34
 70
     1
102
RTVSPost2010Prop35
280
     0
102
RTVSPost2010PropOp35
 70
     1
102
RTVSPost2010Prop36
280
     0
102
RTVSPost2010PropOp36
 70
     1
102
RTVSPost2010Prop37
 90
       50
102
RTVSPost2010PropOp37
 70
     1
102
RTVSPost2010Prop38
140
0.0
102
RTVSPost2010PropOp38
 70
     1
102
RTVSPost2010Prop39
140
1.0
102
RTVSPost2010PropOp39
 70
     1
102
RTVSPost2010Prop40
 90
        0
102
RTVSPost2010PropOp40
 70
     1
102
RTVSPost2010Prop41ColorIndex
 90
       18
102
RTVSPost2010Prop41ColorRGB
 90
        0
102
RTVSPost2010PropOp41
 70
     1
102
RTVSPost2010Prop42
 90
       50
102
RTVSPost2010PropOp42
 70
     1
102
RTVSPost2010Prop43
 90
        3
102
RTVSPost2010PropOp43
 70
     1
102
RTVSPost2010Prop44ColorIndex
 90
        5
102
RTVSPost2010Prop44ColorRGB
 90
      255
102
RTVSPost2010PropOp44
 70
     1
102
RTVSPost2010Prop45
280
     0
102
RTVSPost2010PropOp45
 70
     1
102
RTVSPost2010Prop46
 90
       50
102
RTVSPost2010PropOp46
 70
     1
102
RTVSPost2010Prop47
 90
       50
102
RTVSPost2010PropOp47
 70
     1
102
RTVSPost2010Prop48
 90
       50
102
RTVSPost2010PropOp48
 70
     1
102
RTVSPost2010Prop49
280
     0
102
RTVSPost2010PropOp49
 70
     1
102
RTVSPost2010Prop50
 90
       50
102
RTVSPost2010PropOp50
 70
     1
102
RTVSPost2010Prop51ColorIndex
 90
      256
102
RTVSPost2010Prop51ColorRGB
 90
-16777216
102
RTVSPost2010PropOp51
 70
     0
102
RTVSPost2010Prop52
140
1.0
102
RTVSPost2010PropOp52
 70
     0
102
RTVSPost2010Prop53
 90
        2
102
RTVSPost2010PropOp53
 70
     1
102
RTVSPost2010Prop54
  1
strokes_ogs.tif
102
RTVSPost2010PropOp54
 70
     1
102
RTVSPost2010Prop55
280
     0
102
RTVSPost2010PropOp55
 70
     1
102
RTVSPost2010Prop56
140
1.0
102
RTVSPost2010PropOp56
 70
     1
102
RTVSPost2010Prop57
140
1.0
102
RTVSPost2010PropOp57
 70
     1
102
RTVSPropertyOp0
 70
     1
102
RTVSPropertyOp1
 70
     1
102
RTVSPropertyOp2
 70
     1
102
RTVSPropertyOp3
 70
     1
102
RTVSPropertyOp4
 70
     1
102
RTVSPropertyOp5
 70
     1
102
RTVSPropertyOp6
 70
     1
102
RTVSPropertyOp7
 70
     1
102
RTVSPropertyOp8
 70
     1
102
RTVSPropertyOp9
 70
     1
102
RTVSPropertyOp10
 70
     1
102
RTVSPropertyOp11
 70
     1
102
RTVSPropertyOp12
 70
     1
102
RTVSPropertyOp13
 70
     1
102
RTVSPropertyOp14
 70
     1
102
RTVSPropertyOp15
 70
     1
102
RTVSPropertyOp16
 70
     1
102
RTVSPropertyOp17
 70
     1
102
RTVSPropertyOp18
 70
     1
102
RTVSPropertyOp19
 70
     1
102
RTVSPropertyOp20
 70
     1
102
RTVSPropertyOp21
 70
     1
102
RTVSPropertyOp22
 70
     1
102
RTVSPropertyOp23
 70
     1
102
RTVSPropertyOp24
 70
     1
102
RTVSPropertyOp25
 70
     1
102
RTVSPropertyOp26
 70
     1
102
RTVSPropertyOp27
 70
     1
102
RTVSPropertyOp28
 70
     1
102
RTVSPropertyOp29
 70
     1
102
RTVSPropertyOp30
 70
     1
102
RTVSPropertyOp31
 70
     1
102
RTVSPropertyOp32
 70
     1
102
RTVSPropertyOp33
 70
     1
102
RTVSPropertyOp34
 70
     1
102
RTVSPropertyOp35
 70
     1
102
RTVSPropertyOp36
 70
     1
102
RTVSPropertyOp37
 70
     1
102
RTVSPropertyOp38
 70
     1
102
RTVSPropertyOp39
 70
     1
102
RTVSPropertyOp40
 70
     1
102
RTVSPropertyOp41
 70
     1
102
RTVSPropertyOp42
 70
     1
102
RTVSPropertyOp43
 70
     1
102
RTVSPropertyOp44
 70
     1
102
RTVSPropertyOp45
 70
     1
102
RTVSPropertyOp46
 70
     1
102
RTVSPropertyOp47
 70
     1
102
RTVSPropertyOp48
 70
     1
102
RTVSPropertyOp49
 70
     1
102
RTVSPropertyOp50
 70
     1
102
RTVSPropertyOp51
 70
     0
102
RTVSPropertyOp52
 70
     0
102
RTVSPropertyOp53
 70
     1
102
RTVSPropertyOp54
 70
     1
102
RTVSPropertyOp55
 70
     1
102
RTVSPropertyOp56
 70
     1
102
RTVSPropertyOp57
 70
     1
102
RTVSPropertyOp58
 70
     1
102
RTVSPropertyOp59
 70
     1
102
RTVSPropertyOp60
 70
     1
102
RTVSPropertyOp61
 70
     1
102
RTVSPropertyOp62
 70
     1
  0
XRECORD
  5
507
102
{ACAD_REACTORS
330
506
102
}
330
506
100
AcDbXrecord
280
     1
102
RTVSPost2010Prop28
280
     0
102
RTVSPost2010PropOp28
 70
     1
102
RTVSPost2010Prop29
280
     1
102
RTVSPost2010PropOp29
 70
     1
102
RTVSPost2010Prop30
280
     1
102
RTVSPost2010PropOp30
 70
     1
102
RTVSPost2010Prop31
280
     0
102
RTVSPost2010PropOp31
 70
     1
102
RTVSPost2010Prop32
280
     0
102
RTVSPost2010PropOp32
 70
     1
102
RTVSPost2010Prop33
280
     0
102
RTVSPost2010PropOp33
 70
     1
102
RTVSPost2010Prop34
280
     0
102
RTVSPost2010PropOp34
 70
     1
102
RTVSPost2010Prop35
280
     0
102
RTVSPost2010PropOp35
 70
     1
102
RTVSPost2010Prop36
280
     0
102
RTVSPost2010PropOp36
 70
     1
102
RTVSPost2010Prop37
 90
       50
102
RTVSPost2010PropOp37
 70
     1
102
RTVSPost2010Prop38
140
0.0
102
RTVSPost2010PropOp38
 70
     1
102
RTVSPost2010Prop39
140
1.0
102
RTVSPost2010PropOp39
 70
     1
102
RTVSPost2010Prop40
 90
        0
102
RTVSPost2010PropOp40
 70
     1
102
RTVSPost2010Prop41ColorIndex
 90
       18
102
RTVSPost2010Prop41ColorRGB
 90
        0
102
RTVSPost2010PropOp41
 70
     1
102
RTVSPost2010Prop42
 90
       50
102
RTVSPost2010PropOp42
 70
     1
102
RTVSPost2010Prop43
 90
        3
102
RTVSPost2010PropOp43
 70
     1
102
RTVSPost2010Prop44ColorIndex
 90
        5
102
RTVSPost2010Prop44ColorRGB
 90
      255
102
RTVSPost2010PropOp44
 70
     1
102
RTVSPost2010Prop45
280
     0
102
RTVSPost2010PropOp45
 70
     1
102
RTVSPost2010Prop46
 90
       50
102
RTVSPost2010PropOp46
 70
     1
102
RTVSPost2010Prop47
 90
       50
102
RTVSPost2010PropOp47
 70
     1
102
RTVSPost2010Prop48
 90
       50
102
RTVSPost2010PropOp48
 70
     1
102
RTVSPost2010Prop49
280
     0
102
RTVSPost2010PropOp49
 70
     1
102
RTVSPost2010Prop50
 90
       50
102
RTVSPost2010PropOp50
 70
     1
102
RTVSPost2010Prop51ColorIndex
 90
      256
102
RTVSPost2010Prop51ColorRGB
 90
-16777216
102
RTVSPost2010PropOp51
 70
     0
102
RTVSPost2010Prop52
140
1.0
102
RTVSPost2010PropOp52
 70
     0
102
RTVSPost2010Prop53
 90
        2
102
RTVSPost2010PropOp53
 70
     1
102
RTVSPost2010Prop54
  1
strokes_ogs.tif
102
RTVSPost2010PropOp54
 70
     1
102
RTVSPost2010Prop55
280
     0
102
RTVSPost2010PropOp55
 70
     1
102
RTVSPost2010Prop56
140
1.0
102
RTVSPost2010PropOp56
 70
     1
102
RTVSPost2010Prop57
140
1.0
102
RTVSPost2010PropOp57
 70
     1
102
RTVSPropertyOp0
 70
     1
102
RTVSPropertyOp1
 70
     1
102
RTVSPropertyOp2
 70
     1
102
RTVSPropertyOp3
 70
     1
102
RTVSPropertyOp4
 70
     1
102
RTVSPropertyOp5
 70
     1
102
RTVSPropertyOp6
 70
     1
102
RTVSPropertyOp7
 70
     1
102
RTVSPropertyOp8
 70
     1
102
RTVSPropertyOp9
 70
     1
102
RTVSPropertyOp10
 70
     1
102
RTVSPropertyOp11
 70
     1
102
RTVSPropertyOp12
 70
     1
102
RTVSPropertyOp13
 70
     1
102
RTVSPropertyOp14
 70
     1
102
RTVSPropertyOp15
 70
     1
102
RTVSPropertyOp16
 70
     1
102
RTVSPropertyOp17
 70
     1
102
RTVSPropertyOp18
 70
     1
102
RTVSPropertyOp19
 70
     1
102
RTVSPropertyOp20
 70
     1
102
RTVSPropertyOp21
 70
     1
102
RTVSPropertyOp22
 70
     1
102
RTVSPropertyOp23
 70
     1
102
RTVSPropertyOp24
 70
     1
102
RTVSPropertyOp25
 70
     1
102
RTVSPropertyOp26
 70
     1
102
RTVSPropertyOp27
 70
     1
102
RTVSPropertyOp28
 70
     1
102
RTVSPropertyOp29
 70
     1
102
RTVSPropertyOp30
 70
     1
102
RTVSPropertyOp31
 70
     1
102
RTVSPropertyOp32
 70
     1
102
RTVSPropertyOp33
 70
     1
102
RTVSPropertyOp34
 70
     1
102
RTVSPropertyOp35
 70
     1
102
RTVSPropertyOp36
 70
     1
102
RTVSPropertyOp37
 70
     1
102
RTVSPropertyOp38
 70
     1
102
RTVSPropertyOp39
 70
     1
102
RTVSPropertyOp40
 70
     1
102
RTVSPropertyOp41
 70
     1
102
RTVSPropertyOp42
 70
     1
102
RTVSPropertyOp43
 70
     1
102
RTVSPropertyOp44
 70
     1
102
RTVSPropertyOp45
 70
     1
102
RTVSPropertyOp46
 70
     1
102
RTVSPropertyOp47
 70
     1
102
RTVSPropertyOp48
 70
     1
102
RTVSPropertyOp49
 70
     1
102
RTVSPropertyOp50
 70
     1
102
RTVSPropertyOp51
 70
     0
102
RTVSPropertyOp52
 70
     0
102
RTVSPropertyOp53
 70
     1
102
RTVSPropertyOp54
 70
     1
102
RTVSPropertyOp55
 70
     1
102
RTVSPropertyOp56
 70
     1
102
RTVSPropertyOp57
 70
     1
102
RTVSPropertyOp58
 70
     1
102
RTVSPropertyOp59
 70
     1
102
RTVSPropertyOp60
 70
     1
102
RTVSPropertyOp61
 70
     1
102
RTVSPropertyOp62
 70
     1
  0
XRECORD
  5
51F
102
{ACAD_REACTORS
330
51E
102
}
330
51E
100
AcDbXrecord
280
     1
102
RTVSPost2010Prop28
280
     0
102
RTVSPost2010PropOp28
 70
     1
102
RTVSPost2010Prop29
280
     1
102
RTVSPost2010PropOp29
 70
     1
102
RTVSPost2010Prop30
280
     1
102
RTVSPost2010PropOp30
 70
     1
102
RTVSPost2010Prop31
280
     0
102
RTVSPost2010PropOp31
 70
     1
102
RTVSPost2010Prop32
280
     0
102
RTVSPost2010PropOp32
 70
     1
102
RTVSPost2010Prop33
280
     0
102
RTVSPost2010PropOp33
 70
     1
102
RTVSPost2010Prop34
280
     0
102
RTVSPost2010PropOp34
 70
     1
102
RTVSPost2010Prop35
280
     0
102
RTVSPost2010PropOp35
 70
     1
102
RTVSPost2010Prop36
280
     0
102
RTVSPost2010PropOp36
 70
     1
102
RTVSPost2010Prop37
 90
       50
102
RTVSPost2010PropOp37
 70
     1
102
RTVSPost2010Prop38
140
0.0
102
RTVSPost2010PropOp38
 70
     1
102
RTVSPost2010Prop39
140
1.0
102
RTVSPost2010PropOp39
 70
     1
102
RTVSPost2010Prop40
 90
        0
102
RTVSPost2010PropOp40
 70
     1
102
RTVSPost2010Prop41ColorIndex
 90
       18
102
RTVSPost2010Prop41ColorRGB
 90
        0
102
RTVSPost2010PropOp41
 70
     1
102
RTVSPost2010Prop42
 90
       50
102
RTVSPost2010PropOp42
 70
     1
102
RTVSPost2010Prop43
 90
        3
102
RTVSPost2010PropOp43
 70
     1
102
RTVSPost2010Prop44ColorIndex
 90
        5
102
RTVSPost2010Prop44ColorRGB
 90
      255
102
RTVSPost2010PropOp44
 70
     1
102
RTVSPost2010Prop45
280
     0
102
RTVSPost2010PropOp45
 70
     1
102
RTVSPost2010Prop46
 90
       50
102
RTVSPost2010PropOp46
 70
     1
102
RTVSPost2010Prop47
 90
       50
102
RTVSPost2010PropOp47
 70
     1
102
RTVSPost2010Prop48
 90
       50
102
RTVSPost2010PropOp48
 70
     1
102
RTVSPost2010Prop49
280
     0
102
RTVSPost2010PropOp49
 70
     1
102
RTVSPost2010Prop50
 90
       50
102
RTVSPost2010PropOp50
 70
     1
102
RTVSPost2010Prop51ColorIndex
 90
      256
102
RTVSPost2010Prop51ColorRGB
 90
-16777216
102
RTVSPost2010PropOp51
 70
     0
102
RTVSPost2010Prop52
140
1.0
102
RTVSPost2010PropOp52
 70
     0
102
RTVSPost2010Prop53
 90
        2
102
RTVSPost2010PropOp53
 70
     1
102
RTVSPost2010Prop54
  1
strokes_ogs.tif
102
RTVSPost2010PropOp54
 70
     1
102
RTVSPost2010Prop55
280
     0
102
RTVSPost2010PropOp55
 70
     1
102
RTVSPost2010Prop56
140
1.0
102
RTVSPost2010PropOp56
 70
     1
102
RTVSPost2010Prop57
140
1.0
102
RTVSPost2010PropOp57
 70
     1
102
RTVSPropertyOp0
 70
     1
102
RTVSPropertyOp1
 70
     1
102
RTVSPropertyOp2
 70
     1
102
RTVSPropertyOp3
 70
     1
102
RTVSPropertyOp4
 70
     1
102
RTVSPropertyOp5
 70
     1
102
RTVSPropertyOp6
 70
     1
102
RTVSPropertyOp7
 70
     1
102
RTVSPropertyOp8
 70
     1
102
RTVSPropertyOp9
 70
     1
102
RTVSPropertyOp10
 70
     1
102
RTVSPropertyOp11
 70
     1
102
RTVSPropertyOp12
 70
     1
102
RTVSPropertyOp13
 70
     1
102
RTVSPropertyOp14
 70
     1
102
RTVSPropertyOp15
 70
     1
102
RTVSPropertyOp16
 70
     1
102
RTVSPropertyOp17
 70
     1
102
RTVSPropertyOp18
 70
     1
102
RTVSPropertyOp19
 70
     1
102
RTVSPropertyOp20
 70
     1
102
RTVSPropertyOp21
 70
     1
102
RTVSPropertyOp22
 70
     1
102
RTVSPropertyOp23
 70
     1
102
RTVSPropertyOp24
 70
     1
102
RTVSPropertyOp25
 70
     1
102
RTVSPropertyOp26
 70
     1
102
RTVSPropertyOp27
 70
     1
102
RTVSPropertyOp28
 70
     1
102
RTVSPropertyOp29
 70
     1
102
RTVSPropertyOp30
 70
     1
102
RTVSPropertyOp31
 70
     1
102
RTVSPropertyOp32
 70
     1
102
RTVSPropertyOp33
 70
     1
102
RTVSPropertyOp34
 70
     1
102
RTVSPropertyOp35
 70
     1
102
RTVSPropertyOp36
 70
     1
102
RTVSPropertyOp37
 70
     1
102
RTVSPropertyOp38
 70
     1
102
RTVSPropertyOp39
 70
     1
102
RTVSPropertyOp40
 70
     1
102
RTVSPropertyOp41
 70
     1
102
RTVSPropertyOp42
 70
     1
102
RTVSPropertyOp43
 70
     1
102
RTVSPropertyOp44
 70
     1
102
RTVSPropertyOp45
 70
     1
102
RTVSPropertyOp46
 70
     1
102
RTVSPropertyOp47
 70
     1
102
RTVSPropertyOp48
 70
     1
102
RTVSPropertyOp49
 70
     1
102
RTVSPropertyOp50
 70
     1
102
RTVSPropertyOp51
 70
     0
102
RTVSPropertyOp52
 70
     0
102
RTVSPropertyOp53
 70
     1
102
RTVSPropertyOp54
 70
     1
102
RTVSPropertyOp55
 70
     1
102
RTVSPropertyOp56
 70
     1
102
RTVSPropertyOp57
 70
     1
102
RTVSPropertyOp58
 70
     1
102
RTVSPropertyOp59
 70
     1
102
RTVSPropertyOp60
 70
     1
102
RTVSPropertyOp61
 70
     1
102
RTVSPropertyOp62
 70
     1
  0
ENDSEC
  0
EOF
